Oops, an error
Loading. Please wait.

Ninjakitty - Coblestone Cockroach Tab

1 view 1 this week
no commentswrite comment
1 2 3 4 5
3 more votes to show rating
add to favorites
launch autoscroll
font size
0
reset
how to read this tab
guitar tuner
Autoscroll
slow
fast
+/-
esc
set tempo
stop
Help us to improve Ultimate-Guitar.com Take our survey!
×
Author
Difficulty
Tuning
intermediate
C G C F A D
About this tab version
Tabs were originally written by myself. Was this info helpful? Yes No
[Intro]
D|------------------------------------------------------------------|
A|------------------------------------------------------------------|
F|------------------------------------------------------------------|
C|-5/7p0-0-3p0-0-------------------5/7p0-0-3p0-0--------------------|
G|---------------3/5-5p0-0-----------------------3/5-5p0-0-----3p0--|
C|-------------------------3-5-0-0-------------------------3-5------|X3

D|---------------------------------------------------------------------|
A|---------------------------------------------------------------------|
F|---------------------------------------------------------------------|
C|-5/7p0-0-3p0-0-------------------5/7p0-0-3p0-0------------------5/7--|
G|---------------3/5-5p0-0-----------------------3/5-5p0-0-----3--3/5--|
C|-------------------------3-5-0-0-------------------------3-5---------|

(Preverse)
D|----------------------------------|
A|----------------------------------|
F|----------------------------------|
C|-5/7-xxxx-3-0-xx0-xx0-xx0-xx0-3---|
G|-5/7-xxxx-3-0-xx0-xx0-xx0-xx0-3---|
C|-5/7-xxxx-3-0-xx0-xx0-xx0-xx0-3---|X4

[Verse]
D|-------------------------------------|
A|-------------------------------------|
F|-------------------------------------|
C|-5/7-xxxx-3-0-xx-5/7-xx-3/5-xx0-xx0--|
G|-5/7-xxxx-3-0-xx-3/5-xx-3/5-xx0-xx0--|
C|-5/7-xxxx-3-0-xx-----xx-3/5-xx0-xx0--|X3

D|---------------------------------------|
A|---------------------------------------|
F|---------------------------------------|
C|-5/7-xxxx-3-0-xx-5/7-xx-3/5-xx0-xx3/5--|
G|-5/7-xxxx-3-0-xx-3/5-xx-3/5-xx0-xx3/5--|
C|-5/7-xxxx-3-0-xx-----xx-3/5-xx0-xx3/5--|

[Chorus]
D|-------------------------------------------------------------------------------------------------------|
A|-------------------------------------------------------------------------------------------------------|
F|-------------------------------------------------------------------------------------------------------|
C|-3-5-0-0000-xx-5-7-0-0000-5-7-3-3333-5-7-5-5555-3-5-0-0000-xx-5-7-0-0000-5-7-3-3333-5-7-5-5555-3-5-0---|
G|-3-5-0-0000-xx-3-5-0-0000-3-5-3-3333-3-5-5-5555-3-5-0-0000-xx-3-5-0-0000-3-5-3-3333-3-5-5-5555-3-5-0---|
C|-3-5-0-0000-xx-----0-0000-----3-3333-----5-5555-3-5-0-0000-xx-----0-0000-----3-3333-----5-5555-3-5-0---|

(Preverse)
D|----------------------------------|
A|----------------------------------|
F|----------------------------------|
C|-5/7-xxxx-3-0-xx0-xx0-xx0-xx0-3---|
G|-5/7-xxxx-3-0-xx0-xx0-xx0-xx0-3---|
C|-5/7-xxxx-3-0-xx0-xx0-xx0-xx0-3---|X4

[Verse]
D|-------------------------------------|
A|-------------------------------------|
F|-------------------------------------|
C|-5/7-xxxx-3-0-xx-5/7-xx-3/5-xx0-xx0--|
G|-5/7-xxxx-3-0-xx-3/5-xx-3/5-xx0-xx0--|
C|-5/7-xxxx-3-0-xx-----xx-3/5-xx0-xx0--|X3

D|---------------------------------------|
A|---------------------------------------|
F|---------------------------------------|
C|-5/7-xxxx-3-0-xx-5/7-xx-3/5-xx0-xx3/5--|
G|-5/7-xxxx-3-0-xx-3/5-xx-3/5-xx0-xx3/5--|
C|-5/7-xxxx-3-0-xx-----xx-3/5-xx0-xx3/5--|

[Verse 2]
D|--------------------------------------------------------------------|
A|--------------------------------------------------------------------|
F|--------------------------------------------------------------------|
C|-5/7-xxxx-5-3-xx5-xx5-xx5/7-7-7-0-5/7-xxxx-3-0-xx-5/7-7-7-0---------|
G|-5/7-xxxx-5-3-xx3-xx3-xx3/5-5-5-0-5/7-xxxx-3-0-xx-3/5-5-5-0----3p0--|
C|-5/7-xxxx-5-3-xx--xx--xx--------0-5/7-xxxx-3-0-xx---------0-3-5-----|

D|--------------------------------------------------------------------|
A|--------------------------------------------------------------------|
F|--------------------------------------------------------------------|
C|-5/7-xxxx-5-3-xx5-xx5-xx5/7-7-7-0-5/7-xxxx-3-0-xx0-xx0-xx0-xx0-3-0--|
G|-5/7-xxxx-5-3-xx3-xx3-xx3/5-5-5-0-5/7-xxxx-3-0-xx0-xx0-xx0-xx0-3-0--|
C|-5/7-xxxx-5-3-xx--xx--xx--------0-5/7-xxxx-3-0-xx0-xx0-xx0-xx0-3-0--| (Repeat Verse 2)

D|----------------|
A|----------------|
F|----------------|
C|-xxxx-3-xxxx-5--|
G|-xxxx-3-xxxx-5--|
C|-xxxx-3-xxxx-5--|

[Chorus]
D|-------------------------------------------------------------------------------------------------------|
A|-------------------------------------------------------------------------------------------------------|
F|-------------------------------------------------------------------------------------------------------|
C|-3-5-0-0000-xx-5-7-0-0000-5-7-3-3333-5-7-5-5555-3-5-0-0000-xx-5-7-0-0000-5-7-3-3333-5-7-5-5555-3-5-0---|
G|-3-5-0-0000-xx-3-5-0-0000-3-5-3-3333-3-5-5-5555-3-5-0-0000-xx-3-5-0-0000-3-5-3-3333-3-5-5-5555-3-5-0---|
C|-3-5-0-0000-xx-----0-0000-----3-3333-----5-5555-3-5-0-0000-xx-----0-0000-----3-3333-----5-5555-3-5-0---|

(Break)
D|---------------------|
A|---------------------|
F|---------------------|
C|---------------------|
G|-xxxx-xx-xx-xx0-xx0--|
C|-xxxx-xx-xx-xx0-xx0--|X4

D|----------------------|
A|----------------------|
F|----------------------|
C|-xxxx3-xx-xx-xx0-xx0--|
G|-xxxx3-xx-xx-xx0-xx0--|
C|-xxxx3-xx-xx-xx0-xx0--|X4

(Break 2)
D|---------------------------------|
A|---------------------------------|
F|---------------------------------|
C|-xxxx3-xx-7-5-xx-5-3-xxxx-----0--|
G|-xxxx3-xx-5-3-xx-5-3-xxxx-5/7-0--|
C|-xxxx3-xx-----xx-5-3-xxxx-3/5-0--|x7

D|----------------------------|
A|----------------------------|
F|----------------------------|
C|-xxxx3-xx-7-5-xx-5-3--xxxx--|
G|-xxxx3-xx-5-3-xx-5-3--xxxx--|
C|-xxxx3-xx-----xx-5-3--xxxx--|

(Break 3)
D|------------------------------------|
A|------------------------------------|
F|------------------------------------|
C|-3/5-xxxx-1-0-xx0-xx1-xx2-xx-3/5-0--|
G|-3/5-xxxx-1-0-xx0-xx1-xx2-xx-3/5-0--|
C|-3/5-xxxx-1-0-xx0-xx1-xx2-xx-3/5-0--|X3

D|----------------------------------------|
A|----------------------------------------|
F|----------------------------------------|
C|-3/5-xxxx-1-0-xx0-xx1-xx2-xx1-xx0-xxxx--|
G|-3/5-xxxx-1-0-xx0-xx1-xx2-xx1-xx0-xxxx--|
C|-3/5-xxxx-1-0-xx0-xx1-xx2-xx1-xx0-xxxx--| (Repeat Break 3 once more)

[Chorus]
D|-------------------------------------------------------------------------------------------------------|
A|-------------------------------------------------------------------------------------------------------|
F|-------------------------------------------------------------------------------------------------------|
C|-3-5-0-0000-xx-5-7-0-0000-5-7-3-3333-5-7-5-5555-3-5-0-0000-xx-5-7-0-0000-5-7-3-3333-5-7-5-5555-3-5-0---|
G|-3-5-0-0000-xx-3-5-0-0000-3-5-3-3333-3-5-5-5555-3-5-0-0000-xx-3-5-0-0000-3-5-3-3333-3-5-5-5555-3-5-0---|
C|-3-5-0-0000-xx-----0-0000-----3-3333-----5-5555-3-5-0-0000-xx-----0-0000-----3-3333-----5-5555-3-5-0---|

[Chorus]
D|-------------------------------------------------------------------------------------------------------|
A|-------------------------------------------------------------------------------------------------------|
F|-------------------------------------------------------------------------------------------------------|
C|-3-5-0-0000-xx-5-7-0-0000-5-7-3-3333-5-7-5-5555-3-5-0-0000-xx-5-7-0-0000-5-7-3-3333-5-7-5-5555-3-5-0---|
G|-3-5-0-0000-xx-3-5-0-0000-3-5-3-3333-3-5-5-5555-3-5-0-0000-xx-3-5-0-0000-3-5-3-3333-3-5-5-5555-3-5-0---|
C|-3-5-0-0000-xx-----0-0000-----3-3333-----5-5555-3-5-0-0000-xx-----0-0000-----3-3333-----5-5555-3-5-0---|

(Preverse)
D|----------------------------------|
A|----------------------------------|
F|----------------------------------|
C|-5/7-xxxx-3-0-xx0-xx0-xx0-xx0-3---|
G|-5/7-xxxx-3-0-xx0-xx0-xx0-xx0-3---|
C|-5/7-xxxx-3-0-xx0-xx0-xx0-xx0-3---|X4



************************************

| p  Pull-off
| /  Slide up
| x  Dead note

************************************
Suggest correction
Give kudos to tab author, rate the tab!
1 2 3 4 5
comments
print report bad tab
guest
You may want to rate the tab now too:
select rating
Wanna post a correction for this tab? Suggest correction