Oops, an error
Loading. Please wait.

Ninjakitty - Fuck You All Tab

4 views 1 this week
no commentswrite comment
1 2 3 4 5
3 more votes to show rating
add to favorites
launch autoscroll
font size
0
reset
how to read this tab
guitar tuner
Autoscroll
slow
fast
+/-
esc
set tempo
stop
Help us to improve Ultimate-Guitar.com Take our survey!
×
Author
Difficulty
Tuning
intermediate
C G C F A D
About this tab version
Its the only version of this song. written by myself. Was this info helpful? Yes No
[Intro]
(Guitar 1)
D:|-------------------------------------------------------------------------------------------------|
A:|-------------------------------------------------------------------------------------------------|
F:|-5--5-7-4--4-5-2--2-3-2-----5--5-7-4--4-5-4--7--9----5--5-7-4--4-5-2--2-3-2-----5--5-7-4--4-5-7--|
C:|-7--7---5--5---3--3---3--5--7--7---5--5---5--9--10---7--7---5--5---3--3---3--5--7--7---5--5---9--|
G:|-------------------------7---------------------------------------------------7-------------------|
C:|-------------------------------------------------------------------------------------------------|

D:|-----------------|
A:|-----------------|
F:|-7-9-7-----------|
C:|-9-----10-9-7----|
G:|-----------------|
C:|-----------------| X2

(Guitar 2)
D:|-----------------------------------------------------------------------------|
A:|-----------------------------------------------------------------------------|
F:|-----------------------------------------------------------------------------|
C:|-5555-4444-22222222-5555-4444-7777-9----5555-4444-22222222-5555-4444-77777---|
G:|-7777-5555-33333333-7777-5555-9999-10---7777-5555-33333333-7777-5555-99999---|
C:|-----------------------------------------------------------------------------|

[Verse]
(Guitar 1)
D:|-------------------------------------------------------------|
A:|-------------------------------------------------------------|
F:|-5--5-7-5--5-7-4--5-4-2--2-3-5--5-7-5--5-7-9--10-9--4--4-5---|
C:|-7--7---7--7---5----5-3--3---7--7---7--7---10----10-5--5-----|
G:|-------------------------------------------------------------|
C:|-------------------------------------------------------------| X2

(Guitar 2)
D:|-----------------------------------------|
A:|-----------------------------------------|
F:|-----------------------------------------|
C:|-77777777-5555-3333-77777777-5555-5555---|
G:|-77777777-5555-3333-77777777-3333-5555---|
C:|-77777777-5555-3333-77777777------5555---| X2

[Chorus]
(Guitar 1&2)
D:|-------------------------------------------------------------------------------------------|
A:|-------------------------------------------------------------------------------------------|
F:|-5-555-55-5555-4-444-22-2222-5-555-55-5555-4-444-22-2222-5-555-55-5555-9--9-9-9--44-4444---|
C:|-7-777-77-7777-5-555-33-3333-7-777-77-7777-5-555-33-3333-7-777-77-7777-10-101010-55-5555---|
G:|-7-777-77-7777-5-555-33-3333-7-777-77-7777-5-555-33-3333-7-777-77-7777-10-101010-55-5555---|
C:|-------------------------------------------------------------------------------------------|

D:|-------------------------------|
A:|-------------------------------|
F:|-5-555-55-5555-4-444-22-2222---|
C:|-7-777-77-7777-5-555-33-3333---|
G:|-7-777-77-7777-5-555-33-3333---|
C:|-------------------------------| X2

[Verse]
(Guitar 1)
D:|-------------------------------------------------------------|
A:|-------------------------------------------------------------|
F:|-5--5-7-5--5-7-4--5-4-2--2-3-5--5-7-5--5-7-9--10-9--4--4-5---|
C:|-7--7---7--7---5----5-3--3---7--7---7--7---10----10-5--5-----|
G:|-------------------------------------------------------------|
C:|-------------------------------------------------------------|X2

(Guitar 2)
D:|-----------------------------------------|
A:|-----------------------------------------|
F:|-----------------------------------------|
C:|-77777777-5555-3333-77777777-5555-3333---|
G:|-77777777-5555-3333-77777777-5555-3333---|
C:|-77777777-5555-3333-77777777-5555-3333---|X2

[Chorus]
(Guitar 1&2)
D:|-------------------------------------------------------------------------------------------|
A:|-------------------------------------------------------------------------------------------|
F:|-5-555-55-5555-4-444-22-2222-5-555-55-5555-4-444-22-2222-5-555-55-5555-9--9-9-9--44-4444---|
C:|-7-777-77-7777-5-555-33-3333-7-777-77-7777-5-555-33-3333-7-777-77-7777-10-101010-55-5555---|
G:|-7-777-77-7777-5-555-33-3333-7-777-77-7777-5-555-33-3333-7-777-77-7777-10-101010-55-5555---|
C:|-------------------------------------------------------------------------------------------|

D:|-------------------------------|
A:|-------------------------------|
F:|-5-555-55-5555-4-444-22-2222---|
C:|-7-777-77-7777-5-555-33-3333---|
G:|-7-777-77-7777-5-555-33-3333---|
C:|-------------------------------| X2

[Bridge]
(Guitar 2) (Palm Muted)
D:|--------------------------------------------------------------------------|
A:|--------------------------------------------------------------------------|
F:|--------------------------------------------------------------------------|
C:|--------------------------------------------------------------------------|
G:|-77777777-5555-3333-77777777-5555-3333-77777777-5555-3333-77777777-5--3---|
C:|-77777777-5555-3333-77777777-5555-3333-77777777-5555-3333-77777777-5--3---|

(lightly muted)
D:|-----------------------------------------------------------------------------------|
A:|-----------------------------------------------------------------------------------|
F:|-----------------------------------------------------------------------------------|
C:|-----------------------------------------------------------------------------------|
G:|-77777777-5555-3333-77777777-5555-3333-77777777-10101010-5555-77777777-5555-3333---|
C:|-77777777-5555-3333-77777777-5555-3333-77777777-10101010-5555-77777777-5555-3333---|

(Guitar 1)
D:|--------------------------------------------------------------------------------|
A:|--------------------------------------------------------------------------------|
F:|-55555555-4444-2222-55555555-4444-2222-55555555-9-9-9-9--4444-55555555-4444-2---|
C:|-77777777-5555-3333-77777777-5555-3333-77777777-10101010-5555-77777777-5555-3---|
G:|-77777777-5555-3333-77777777-5555-3333-77777777-10101010-5555-77777777-5555-3---|
C:|--------------------------------------------------------------------------------|

[Chorus]
(Guitar 1&2)
D:|-------------------------------------------------------------------------------------------|
A:|-------------------------------------------------------------------------------------------|
F:|-5-555-55-5555-4-444-22-2222-5-555-55-5555-4-444-22-2222-5-555-55-5555-9--9-9-9--44-4444---|
C:|-7-777-77-7777-5-555-33-3333-7-777-77-7777-5-555-33-3333-7-777-77-7777-10-101010-55-5555---|
G:|-7-777-77-7777-5-555-33-3333-7-777-77-7777-5-555-33-3333-7-777-77-7777-10-101010-55-5555---|
C:|-------------------------------------------------------------------------------------------|

D:|-------------------------------|
A:|-------------------------------|
F:|-5-555-55-5555-4-444-22-2222---|
C:|-7-777-77-7777-5-555-33-3333---|
G:|-7-777-77-7777-5-555-33-3333---|
C:|-------------------------------| X4

[Outro]
(Guitar 2) (Palm Muted)
D:|--------------------------------------------------------------------------|
A:|--------------------------------------------------------------------------|
F:|--------------------------------------------------------------------------|
C:|--------------------------------------------------------------------------|
G:|-77777777-5555-3333-77777777-5555-3333-77777777-5555-3333-77777777-5--3---|
C:|-77777777-5555-3333-77777777-5555-3333-77777777-5555-3333-77777777-5--3---|X2

(Guitar 1)
D:|---------------------------------------------|
A:|---------------------------------------------|
F:|-5---4--2--5---4--2--5---4--2--5---4--2--5---|
C:|-7---5--3--7---5--3--7---5--3--7---5--3--7---|
G:|-7---5--3--7---5--3--7---5--3--7---5--3--7---|
C:|---------------------------------------------|
Suggest correction
Give kudos to tab author, rate the tab!
1 2 3 4 5
comments
print report bad tab
guest
You may want to rate the tab now too:
select rating
Wanna post a correction for this tab? Suggest correction