Oops, an error
Loading. Please wait.

Ninjakitty - God Damn Mother Fucking Son Of A Bitch Tab

4 views 4 this week
no commentswrite comment
1 2 3 4 5
3 more votes to show rating
add to favorites
launch autoscroll
font size
0
reset
how to read this tab
guitar tuner
Autoscroll
slow
fast
+/-
esc
set tempo
stop
Help us to improve Ultimate-Guitar.com Take our survey!
×
Author
Difficulty
Tuning
intermediate
C G C F A D
About this tab version
Original song written by myself. Was this info helpful? Yes No
[Intro & Chorus]
D|--------------------|
A|--------------------|
F|--------------------|
C|-5-5-5555666-3-333--|
G|-5-5-5555666-3-333--|
C|-5-5-5555666-3-333--|X4

[Verse]
D|-----------------------------------------------------------------------------------------|
A|-----------------------------------------------------------------------------------------|
F|-----------------------------------------------------------------------------------------|
C|-5-5-8-88-6663-333-5-5-7-77-555-6-5-5-8-88-6663-333-5-5-6-66-5556-666-5-5-6-66-3333-333--|
G|-5-5-8-88-6663-333-5-5-7-77-333-6-5-5-8-88-6663-333-5-5-6-66-5556-666-5-5-6-66-3333-333--|
C|-5-5-8-88-6663-333-5-5-7-77-----6-5-5-8-88-6663-333-5-5-6-66-5556-666-5-5-6-66-3333-333--|

[Chorus]
D|--------------------|
A|--------------------|
F|--------------------|
C|-5-5-5555666-3-333--|
G|-5-5-5555666-3-333--|
C|-5-5-5555666-3-333--|X4

[Verse]
D|-----------------------------------------------------------------------------------------|
A|-----------------------------------------------------------------------------------------|
F|-----------------------------------------------------------------------------------------|
C|-5-5-8-88-6663-333-5-5-7-77-555-6-5-5-8-88-6663-333-5-5-6-66-5556-666-5-5-6-66-3333-333--|
G|-5-5-8-88-6663-333-5-5-7-77-333-6-5-5-8-88-6663-333-5-5-6-66-5556-666-5-5-6-66-3333-333--|
C|-5-5-8-88-6663-333-5-5-7-77-----6-5-5-8-88-6663-333-5-5-6-66-5556-666-5-5-6-66-3333-333--|

[Guitar 1] rhythm palm muted
D|----------------------------------|
A|----------------------------------|
F|----------------------------------|
C|-5-5-5-5-5-5-5-5-6-6-6-3-3-3-3-3--|
G|-5-5-5-5-5-5-5-5-6-6-6-3-3-3-3-3--|
C|-5-5-5-5-5-5-5-5-6-6-6-3-3-3-3-3--|X8

[Guitar 2] solo
D|----------------------------------------------------------|
A|----------------------------------------------------------|
F|-------------------------------------------------------3--|
C|---------------------5-3-------------------------3-5-6----|
G|-----3-5--5-3-5--5-3-----5-3-----3-5--5-3-5--5-6----------|
C|-5-6-------------------------5-6--------------------------|

D|-----------------------------------------------------------|
A|-----------------------------------------------------------|
F|-5-3-5-5--5-3-5--5-3-3-5-6-5--5-3--------------------------|
C|----------------------------------6-5--5-6-5--5-3----------|
G|--------------------------------------------------6-5-3----|
C|--------------------------------------------------------6--|

D|----------------------------------------------------------------------------------------|
A|----------------------------------------------------------------------------------------|
F|----------------------------------------------------------------------------------------|
C|----------------------------------------------------------------------------------------|
G|-----3-5--5-3-5--5-3-5-3----------3-5--5-3-5--5-3-3-5-6-5--5-3-5-5--5-3-5--5-3-5-3------|
C|-5-6---------------------6-5--5-6--------------------------------------------------6-5--|

D|-------------------------------------|
A|-------------------------------------|
F|-------------------------------------|
C|-------------------------------------|
G|-----3-5--5-3-5--5-3-----------------|
C|-5-6-----------------6-5-3-0--0-3/5--|

[Chorus]
D|--------------------|
A|--------------------|
F|--------------------|
C|-5-5-5555666-3-333--|
G|-5-5-5555666-3-333--|
C|-5-5-5555666-3-333--|X4

[Verse]
D|-----------------------------------------------------------------------------------------|
A|-----------------------------------------------------------------------------------------|
F|-----------------------------------------------------------------------------------------|
C|-5-5-8-88-6663-333-5-5-7-77-555-6-5-5-8-88-6663-333-5-5-6-66-5556-666-5-5-6-66-3333-333--|
G|-5-5-8-88-6663-333-5-5-7-77-333-6-5-5-8-88-6663-333-5-5-6-66-5556-666-5-5-6-66-3333-333--|
C|-5-5-8-88-6663-333-5-5-7-77-----6-5-5-8-88-6663-333-5-5-6-66-5556-666-5-5-6-66-3333-333--|X2



************************************

| /  Slide up

************************************
Suggest correction
Give kudos to tab author, rate the tab!
1 2 3 4 5
comments
print report bad tab
guest
You may want to rate the tab now too:
select rating
Wanna post a correction for this tab? Suggest correction