Oops, an error
Loading. Please wait.

Ninjakitty - Pity The Monster Tab

4 views 4 this week
no commentswrite comment
1 2 3 4 5
3 more votes to show rating
add to favorites
launch autoscroll
font size
0
reset
how to read this tab
guitar tuner
Autoscroll
slow
fast
+/-
esc
set tempo
stop
Help us to improve Ultimate-Guitar.com Take our survey!
×
Author
Difficulty
Tuning
intermediate
C G C F A D
About this tab version
Only version tabs were written by myself. Was this info helpful? Yes No
[Intro]
D:----------------------------------------------------------------|
A:----------------------------------------------------------------|
F:----------------------------------------------------------------|
C:-0--0-8-8888-88-7--7-1-1111-11-3--3-3-3333-33-7--7-7-6-6666-66--|
G:-0--0-8-8888-88-7--7-1-1111-11-3--3-3-3333-33-7--7-7-6-6666-66--|
C:-0--0-8-8888-88-7--7-1-1111-11-3--3-3-3333-33-7--7-7-6-6666-66--|X2

[Pre-Verse] Palm muted
D:---------------------------------------|
A:---------------------------------------|
F:---------------------------------------|
C:-0----0----0----0----1----1----7----7--|
G:-0----0----0----0----1----1----7----7--|
C:-0----0----0----0----1----1----7----7--|X4

[Verse]
D:--------------------------------|
A:--------------------------------|
F:--------------------------------|
C:-0--0-0-0000-00-1--1-7-7777-77--|
G:-0--0-0-0000-00-1--1-7-7777-77--|
C:-0--0-0-0000-00-1--1-7-7777-77--|X2

[Chorus]
D:----------------------------------------------------------------|
A:----------------------------------------------------------------|
F:----------------------------------------------------------------|
C:-0--0-8-8888-88-7--7-1-1111-11-3--3-3-3333-33-7--7-7-6-6666-66--|
G:-0--0-8-8888-88-7--7-1-1111-11-3--3-3-3333-33-7--7-7-6-6666-66--|
C:-0--0-8-8888-88-7--7-1-1111-11-3--3-3-3333-33-7--7-7-6-6666-66--|X2

D:-----------------------------------------------------------------|
A:-----------------------------------------------------------------|
F:-----------------------------------------------------------------|
C:-0--0-8-8888-88-7--7-1-1111-11-3--3-3-3-3-3-33337-7-77777-7-6-6--|
G:-0--0-8-8888-88-7--7-1-1111-11-3--3-3-3-3-3-33337-7-77777-7-6-6--|
C:-0--0-8-8888-88-7--7-1-1111-11-3--3-3-3-3-3-33337-7-77777-7-6-6--|


[Pre-Verse] Palm Muted
[Verse]
D:--------------------------------|
A:--------------------------------|
F:--------------------------------|
C:-0--0-0-0000-00-1--1-7-7777-77--|
G:-0--0-0-0000-00-1--1-7-7777-77--|
C:-0--0-0-0000-00-1--1-7-7777-77--|X2

[Verse]
D:--------------------------------|
A:--------------------------------|
F:--------------------------------|
C:-0--0-0-0000-00-1--1-7-7777-77--|
G:-0--0-0-0000-00-1--1-7-7777-77--|
C:-0--0-0-0000-00-1--1-7-7777-77--|X2

[Chorus]
D:----------------------------------------------------------------|
A:----------------------------------------------------------------|
F:----------------------------------------------------------------|
C:-0--0-8-8888-88-7--7-1-1111-11-3--3-3-3333-33-7--7-7-6-6666-66--|
G:-0--0-8-8888-88-7--7-1-1111-11-3--3-3-3333-33-7--7-7-6-6666-66--|
C:-0--0-8-8888-88-7--7-1-1111-11-3--3-3-3333-33-7--7-7-6-6666-66--|X2

D:-----------------------------------------------------------------|
A:-----------------------------------------------------------------|
F:-----------------------------------------------------------------|
C:-0--0-8-8888-88-7--7-1-1111-11-3--3-3-3-3-3-33337-7-77777-7-6-6--|
G:-0--0-8-8888-88-7--7-1-1111-11-3--3-3-3-3-3-33337-7-77777-7-6-6--|
C:-0--0-8-8888-88-7--7-1-1111-11-3--3-3-3-3-3-33337-7-77777-7-6-6--|

[Break]
D:-----------------------------------------------------------------------------------|
A:-----------------------------------------------------------------------------------|
F:-------2------3p2------------------------------------------------------9--------8--|
C:-----0------------3--------1---3/5----------------4-6-7-6-4----------7-9------6-8--|
G:---0--------0-------3----1---1-----5-3/5-3-1----4-----------7-6----7---9----6---8--|
C:-0--------0------------1----------------------4------------------7--------6--------|X2

[Break 2]
D:----------------------------------------------------------------|
A:----------------------------------------------------------------|
F:-------2-2222-223-3332-2222-22----------------------------------|
C:-----0-0-0000-000-0000-0003-33-1-1113-3334-446-6662-2222--------|
G:---0---0-0000-000-0000-0000-00-1-1111-1114-444-4442-2222--------|
C:-0-----------------------------1-1111-1114-444-4442-2222--------|X2

D:--------------------------------------------------------|
A:--------------------------------------------------------|
F:-2-2222-2222-223-3332-2222-22---------------------------|
C:-0-0000-0000-000-0000-0003-33-1-1113-3334-44-6662-2222--|
G:-0-0000-0000-000-0000-0000-00-1-1111-1114-44-4442-2222--|
C:------------------------------1-1111-1114-44-4442-2222--|X2

[Break 3] Palm Mute
D:------------------------------------------------------------------|
A:------------------------------------------------------------------|
F:------------------------------------------------------------------|
C:-0-0-0-7-x7x77-x78-x8x87-x7x77-0-0-0-8-x8x88-xx-0-0-0-6-x6x66-xx--|
G:-0-0-0-5-x5x55-x56-x6x65-x5x55-0-0-0-8-x8x88-xx-0-0-0-6-x6x66-xx--|
C:-0-0-0-------------------------0-0-0-8-x8x88-xx-0-0-0-6-x6x66-xx--|X2

[Break 4]
D:------------------------------------------------------------------|
A:------------------------------------------------------------------|
F:------------------------------------------------------------------|
C:-x-x-x-7-77777-778-88887-77777-x-x-x-8-88888-xx-x-x-x-6-66666-xx--|
G:-x-x-x-5-55555-556-66665-55555-x-x-x-8-88888-xx-x-x-x-6-66666-xx--|
C:-x-x-x-------------------------x-x-x-8-88888-xx-x-x-x-6-66666-xx--|X4

[Chorus]
D:----------------------------------------------------------------|
A:----------------------------------------------------------------|
F:----------------------------------------------------------------|
C:-0--0-8-8888-88-7--7-1-1111-11-3--3-3-3333-33-7--7-7-6-6666-66--|
G:-0--0-8-8888-88-7--7-1-1111-11-3--3-3-3333-33-7--7-7-6-6666-66--|
C:-0--0-8-8888-88-7--7-1-1111-11-3--3-3-3333-33-7--7-7-6-6666-66--|X4

D:------------------------------------------------------------------|
A:------------------------------------------------------------------|
F:------------------------------------------------------------------|
C:-0--0-8-8888-88-7--7-1-1111-11-3--3-3-3-3-3-33337-7-77777-7-6-6-2-|
G:-0--0-8-8888-88-7--7-1-1111-11-3--3-3-3-3-3-33337-7-77777-7-6-6-2-|
C:-0--0-8-8888-88-7--7-1-1111-11-3--3-3-3-3-3-33337-7-77777-7-6-6-2-|

[Outro]
D:---------------------------------------|
A:---------------------------------------|
F:-------2---3p2-------------------------|
C:-----0---------3/5---------------------|
G:---0---------------5-3--2h3p2p0--------|
C:-0------------------------------3p2p0--|



************************************

| p  Pull-off
| /  Slide up
| x  Dead note
| h  Hammer-on

************************************
Suggest correction
Give kudos to tab author, rate the tab!
1 2 3 4 5
comments
print report bad tab
guest
You may want to rate the tab now too:
select rating
Wanna post a correction for this tab? Suggest correction