Oops, an error
Loading. Please wait.

Ninjakitty - Under My Skin Tab

4 views 1 this week
no commentswrite comment
1 2 3 4 5
3 more votes to show rating
add to favorites
launch autoscroll
font size
0
reset
how to read this tab
guitar tuner
Autoscroll
slow
fast
+/-
esc
set tempo
stop
Help us to improve Ultimate-Guitar.com Take our survey!
×
Author
Difficulty
Tuning
novice
D G C F A D
About this tab version
Original and only tabs written by myself. Was this info helpful? Yes No
An original short instrumental piece written by myself

D:|--------------------------------------|
A:|--------------------------------------|
F:|-------8--9\8-------------------------|
C:|-----6--------9\6---------------------|
G:|---7--------------7-9-7-6-------------|
D:|-0------------------------7\--2/4-0---| X12

D:|-----------|
A:|-----------|
F:|-------6---|
C:|-----4-----|
G:|---5-------|
D:|-0---------| X4

(just for fun the first part reversed sounds good too
D:|----------------------------------|
A:|----------------------------------|
F:|---------------------8/9-8--------|
C:|-----------------6/9-------6------|
G:|---------6-7-9-6-------------7----|
D:|-0-4-2-7-----------------------0--|

**************************************

/  Slide up
\  Slide down

**************************************
Suggest correction
Give kudos to tab author, rate the tab!
1 2 3 4 5
comments
print report bad tab
guest
You may want to rate the tab now too:
select rating
Wanna post a correction for this tab? Suggest correction