Oops, an error
Loading. Please wait.

Ninjakitty - Warm Winter Tab

22 views 3 this week
no commentswrite comment
1 2 3 4 5
3 more votes to show rating
add to favorites
launch autoscroll
font size
0
reset
how to read this tab
guitar tuner
Autoscroll
slow
fast
+/-
esc
set tempo
stop
Help us to improve Ultimate-Guitar.com Take our survey!
×
Author
Difficulty
Tuning
intermediate
C G C F A D
About this tab version
This is the only tab of this song because the song is mine it is 100% accurate and soon i will post a recording of this song on youtube so you will be able to listen to the tabs as they are meant to be played my youtube account has an orange cat head as the picture so please look my up if you like the tabs. Was this info helpful? Yes No
D|------------------------------------------------------------------------------------------|
A|------------------------------------------------------------------------------------------|
F|------------------------------------------------------------------------------------------|
C|-----2-4/5/4---7-4---2-0-------0-2---4-----------2-4/5/4---7-4---2-4--------0-2--4--------|
G|---0---------5-----5-----4---2----------5------0---------5-----5----4/2---2--------5-0-2--|
C|-0-------------------------2-----------------0--------------------------2-----------------| (x2)

D|------------------------------------------------------------------------------------------|
A|------------------------------------------------------------------------------------------|
F|------------------------------------------------------------------------------------------|
C|-----0--------5-55------0-2-0-----------------0--------5-55-5-2-22-2/7777-----------------|
G|---2---4-4/5--5-55----2-------2-4-5-0-2-----2---4-4/5--5-55-5-2-22-2/7777-----------------|
D|-4------------5-55--2---------------------4------------5-55-5-2-22-2/7777-----------------|

D|--------------------------------------------|
A|--------------------------------------------|
F|--------------------------------------------|
C|---2-0-------------7----2-0----------7-4----|
G|-------2-2/4-0-5/7----------4-2/4-5--7-4----|
C|-0--------------------0--------------7-4----| (x2)

D|----------------------------------------|
A|----------------------------------------|
F|----------------------------------------|
C|-4-44-------3-33-------5-55-5-----------|
G|-2-22--3/5--3-33--5/7--5-55-5--4-5-0----|
C|------------3-33-------5-55-5-----------| (x2)

D|--------------------------------------------------|
A|-----------------------3---------------7----------|
F|---------4-----------2---2-----------7---7--------|
C|---0-4-0---5-4-----4-------4---4---3-------3------|
G|-2-------------4-5-----------5---4-----------4-0--|
C|--------------------------------------------------| (x4)

D|--------------------------------------------------------------------------------------------------|
A|---------------------2---3---5---3---2-------------------------------2---3---5---3---2------------|
F|-------------------4---4---4---4---4---3-4-------------------------4---4---4---4---4---4-4-3------|
C|---0-4-0-5-4-----4-------------------------4-5-----0-4-0-5-4-----4---------------------------4-5--|
G|-2-----------5-4-------------------------------5-2-----------5-4----------------------------------|
C|--------------------------------------------------------------------------------------------------| (x2)

D|----------------------------------|
A|----------------------------------|
F|----------------------------------|
C|---0-4-0-5-4----------------------|
G|-2-----------5-4-2-5-4------------|
C|-----------------------5-4-7-6-3--| (x4)

D|--------------------------------------------------------------------------------------|
A|--------------------------------------------------------------------------------------|
F|----------------------------------------------------------0---------------------------|
C|---0-4-0-5-4---------------4---0---4---0---4---0---4---0-------4---0---4---0---4---0--|
G|-2-----------5-4-2-5-4-2-2---2---0---0---2---2---0---0-------2---2---0---0------------|
C|-----------------------------------------------------------------------------5---5----|

D|------------------------------------|
A|------------------------------------|
F|------------------------------------|
C|------------------------------------|
G|---2---2---2-2-4-2-4-5-4-2----------|
C|-2---4---2-----------------5-4-7-3--|

D|------------------------------------------------------------------------------|
A|------------------------------------------------------------------------------|
F|------------------------------------------------------------------------------|
C|---2-0-------------7----2-0----------7-4----2-0-------------7----2-0----------|
G|-------2-2/4-0-5/7----------4-2/4-5--7-4--------2-2/4-0-5/7----------4-2/4-5--|
C|-0--------------------0--------------7-4--0--------------------0--------------|


************************************

| /  Slide up

************************************
Suggest correction
Give kudos to tab author, rate the tab!
1 2 3 4 5
comments
print report bad tab
guest
You may want to rate the tab now too:
select rating
Wanna post a correction for this tab? Suggest correction