Oops, an error
Loading. Please wait.

Sam Birch - Short Riff Tab

4 views 1 this week
no commentswrite comment
1 2 3 4 5
3 more votes to show rating
add to favorites
launch autoscroll
font size
0
reset
how to read this tab
guitar tuner
Autoscroll
slow
fast
+/-
esc
set tempo
stop
Help us to improve Ultimate-Guitar.com Take our survey!
×
Author
About this tab version
First Version. Bear in mind that I've only been playing for a year, this is just a short riff I've came up with so feel free to elaborate onto it. High gain with reverb is a recommended sound for this piece. Was this info helpful? Yes No
[Intro]

e|------------------------------------|------------------------------------|
B|------------------------------------|------------------------------------|
G|------------------------------------|------------------------------------|
D|------------------------------------|--------------------5--3--2--3-3----|
A|----7~---7-7-7-7-7--8--7--5--7-7----|----3~---3-3-3-3-3--3--3--3--3-3----|
E|----5~---5-5-5-5-5--5--5--5--5-5----|----1~---1-1-1-1-1------------------|
           . . . . .                          . . . . .        

e|------------------------------------|------------------------------------|
B|------------------------------------|------------------------------------|
G|--------------------7--5--4--5-5----|------------------------------------|
D|----5~---5-5-5-5-5--5--5--5--5-5----|---5-5-5-5-5-5-5-5-7-7-7-7-7-7-7-7--| 
A|----3~---3-3-3-3-3--3--3--3--3-3----|---5-5-5-5-5-5-5-5-5-5-5-5-5-5-5-5--|
E|------------------------------------|---3-3-3-3-3-3-3-3-3-3-3-3-3-3-3-3--|
           . . . . .                                      

************************************


| .  Palm mute


************************************
Suggest correction
Give kudos to tab author, rate the tab!
1 2 3 4 5
comments
print report bad tab
guest
You may want to rate the tab now too:
select rating
Wanna post a correction for this tab? Suggest correction