Oops, an error
Loading. Please wait.

Shrub - Embryotic Massacre Tab

4 views 1 this week
no commentswrite comment
1 2 3 4 5
2 more votes to show rating
add to favorites
launch autoscroll
font size
0
reset
how to read this tab
guitar tuner
Autoscroll
slow
fast
+/-
esc
set tempo
stop
Help us to improve Ultimate-Guitar.com Take our survey!
×
Author
Difficulty
Tuning
novice
A E A D F# B
[Intro]

e |-(0)-------------|-(0)-------------|-(0)-------------|-(0)-----(0)----|
B |-----(4)---------|-----(4)---------|-----(4)---------|-----(4)-(3)----|
G |-------------(3)-|-------------(3)-|-------------(3)-|---------(2)----|
D |---------(2)-----|---------(2)-----|---------(2)-----|---------(1)----| x4
A |-----------------|-----------------|-----------------|---------(0)----|
E |-----------------|-----------------|-----------------|---------(0)----|
A |-----------------|-----------------|-----------------|---------(0)----|


[Verse]

e |---------------------------------|
B |---------------------------------|
G |---------------------------------|
D |---------------------------------|
A |-7-0-0-3/5-0-1-0-0-1/3-0-1p0-0-0-| x4
E |-7-0-0-3/5-0-1-0-0-1/3-0-1p0-0-0-|
A |-7-0-0-3/5-0-1-0-0-1/3-0-1p0-0-0-|
      * *     *   * *     *     * *

[Chorus]

e |---------------------------------|
B |-3-------------------------------|
G |-2-------------------------------|
D |-1-------------------------------|
A |---0-0-3/5-0-1-0-0-1/3-0-1p0-0-0-| x3
E |---0-0-3/5-0-1-0-0-1/3-0-1p0-0-0-|
A |---0-0-3/5-0-1-0-0-1/3-0-1p0-0-0-|
      * *     *   * *     *     * *
e |--------------------------------------|
B |-3------------------------------------|
G |-2------------------------------------|
D |-1------------------------------------|
A |---0-0-3/5-0-1-0-0-1/3-0-1p0-0-(0)----| 
E |---0-0-3/5-0-1-0-0-1/3-0-1p0-0-(0)----|
A |---0-0-3/5-0-1-0-0-1/3-0-1p0-0-(0)----|
      * *     *   * *     *     *


[Verse 2]

e |---------------------------------|
B |---------------------------------|
G |---------------------------------|
D |---------------------------------|
A |-7-0-0-3/5-0-1-0-0-1/3-0-1p0-0-0-| x4
E |-7-0-0-3/5-0-1-0-0-1/3-0-1p0-0-0-|
A |-7-0-0-3/5-0-1-0-0-1/3-0-1p0-0-0-|
      * *     *   * *     *     * *

[Chorus 2]

e |---------------------------------|
B |-3-------------------------------|
G |-2-------------------------------|
D |-1-------------------------------|
A |---0-0-3/5-0-1-0-0-1/3-0-1p0-0-0-| x3
E |---0-0-3/5-0-1-0-0-1/3-0-1p0-0-0-|
A |---0-0-3/5-0-1-0-0-1/3-0-1p0-0-0-|
      * *     *   * *     *     * *
e |--------------------------------------|
B |-3------------------------------------|
G |-2------------------------------------|
D |-1------------------------------------|
A |---0-0-3/5-0-1-0-0-1/3-0-1p0-0-(0)----| 
E |---0-0-3/5-0-1-0-0-1/3-0-1p0-0-(0)----|
A |---0-0-3/5-0-1-0-0-1/3-0-1p0-0-(0)----|
      * *     *   * *     *     *

[Outro]

e |--------------------------|-----------------|-------------------------|-----------------|
B |--------------------------|-----------------|-------------------------|-----------------|
G |--------------------------|-----------------|-------------------------|-----------------|
D |--------------------------|-----------------|-------------------------|-----------------|
A |--------------------------|-----------------|-------------------------|-----------------|
E |----5-----3-----5-------3-|---5-----3-----3-|---5-----3-----5-------3-|---5-----3-----3-|
A |-\----0-0---0-0---0-0-4---|-0---0-0---0-4---|-0---0-0---0-0---0-0-4---|-0---0-0---0-4---|
         * *   * *   * *       *   * *   *       *   * *   * *   * *       *   * *   *
e |-------------------------|-----------------|-------------------------|-----------------|
B |-------------------------|-----------------|-------------------------|-----------------|
G |-------------------------|-----------------|-------------------------|-----------------|
D |-------------------------|-----------------|-------------------------|-----------------|
A |-------------------------|-----------------|-------------------------|-----------------|
E |---5-----3-----5-------3-|---5-----3-----3-|---5-----3-----5-------3-|---5-----3-----3-|
A |-0---0-0---0-0---0-0-4---|-0---0-0---0-4---|-0---0-0---0-0---0-0-4---|-0---0-0---0-4---|
    *   * *   * *   * *       *   * *   *       *   * *   * *   * *       *   * *   *
e |---------------------------------|
B |---------------------------------|
G |---------------------------------|
D |---------------------------------|
A |-8-----7-------------------------| x3
E |---7-----6---5-----4-------------|
A |-----0-----0---4-0---3-0-TR0-TR0-|
                              *   *  
e |----------------------------------------|
B |----------------------------------------|
G |----------------------------------------|
D |----------------------------------------|
A |-8-----7--------------------------------|
E |---7-----6---5-----4--------------------|
A |-----0-----0---4-0---3-0-TR0-TR0-(0)----|
                              *   *                      
I created this "song" on a 7-string that I tuned to Drop A. It is distorted all the way through.
I will try to have a video playthrough of it up on YouTube in the next few days. :) \m/

************************************

| /   Slide up
| \   Slide down
| *   Palm mute
| TR  Trill

************************************
Suggest correction
Give kudos to tab author, rate the tab!
1 2 3 4 5
comments
print report bad tab
guest
You may want to rate the tab now too:
select rating
Wanna post a correction for this tab? Suggest correction