Oops, an error
Loading. Please wait.

Shrub - Encryptic Manuscrypt Tab

43 views 1 this week
no commentswrite comment
1 2 3 4 5
3 more votes to show rating
add to favorites
launch autoscroll
font size
0
reset
how to read this tab
guitar tuner
Autoscroll
slow
fast
+/-
esc
set tempo
stop
Help us to improve Ultimate-Guitar.com Take our survey!
×
Author
Difficulty
Tuning
novice
D A D G B E
About this tab version
Right now, I only have the beginning recorded, but I will try and have up the full song up sometime soon. (I may make changes) https://www.youtube.com/watch?v=J6RqdWsXNCg. Was this info helpful? Yes No
[Intro]
[Guitar 1]
E|------------------|------------------|-----------------|-----------------------------|
B|------------------|------------------|-----------------|-----------------------------|
G|------------------|------------------|-----------------|-----------------------------|
D|-5-------5---8----|-5-------5---8----|-5-------5---8---|-5-------7p6p5p4-------------|x2
A|---6---6---6---6--|---6---6---6---6--|---6---6---6---6-|---6---6---------8p7p6p5-----|
D|-----5------------|-----5------------|-----5-----------|-----5-----------------------|
     * * *   *   *      * * *   *   *      * * *   *   *     * * *
[Guitar 2]
E|---------------------|---------------------|
B|---------------------|---------------------|
G|---------------------|---------------------|
D|-11--------11---12---|-11--------11---12---|x4
A|----9----9----9----9-|----9----9----9----9-|
D|------12-------------|------12-------------|
      * *  *    *    *      * *  *    *    *
[Verse]

E|-----------------|-----------------|-----------------|-----------------|
B|-----------------|-----------------|-----------------|-----------------|
G|-----------------|-----------------|-----------------|-----------------|
D|-6-----5---------|-6-----5-----8---|-6-----5---------|-6-----5---------|
A|---5-6---6-5-3-5-|---5-6---6-5---5-|---5-6---6-5-3-5-|---5-6---6-5-8-5-|
D|-----------------|-----------------|-----------------|-----------------|
     * *   * * * *     * *   * *   *     * *   * * * *     * *   * * * *
E|-----------------|-----------------|-----------------------------------|
B|-----------------|-----------------|-----------------------------------|
G|-----------------|-----------------|-----------------------------------|
D|-6-----5---------|-6-----5-----8---|-6-----5---------6-----5-----8-5\0-|
A|---5-6---6-5-3-5-|---5-6---6-5---5-|---5-6---6-5-3-5---5-6---6-5-8-5\0-|
D|-----------------|-----------------|-----------------------------8-5\0-|
     * *   * * * *     * *   * *   *     * *   * * * *   * *   * * 
[Chorus]

E|------------------------------|-----------------------------|
B|------------------------------|-----------------------------|
G|------------------------------|----------------------6-5----|
D|-8(8)-8-----7(7)-7-----8-7----|8(8)-8-----7(7)-7---------8-7|
A|-5(5)-5-----5(5)-5---------6-5|5(5)-5-----5(5)-5------------|
D|--------0-0--------0-0--------|-------0-0--------0-0--------|            
          * *        * *                * *        * *                      x2
E|------------------------------|-----------------------------------|
B|------------------------------|-----------------------------------|
G|------------------------------|-----------------------------------|
D|-8(8)-8-----7(7)-7-----8-7----|8(8)-8-----7(7)-7-----8\5-5\0-0(0)-|  
A|-5(5)-5-----5(5)-5---------6-5|5(5)-5-----5(5)-5-----8\5-5\0-0(0)-|
D|--------0-0--------0-0--------|-------0-0--------0-0-8\5-5\0-0(0)-|
          * *        * *                * *        * *             

[Verse 2]


E|-----------------|-------------------|-----------------|------------------|
B|-----------------|-------------------|-----------------|------------------|
G|-----------------|-------------------|-----------------|------------------|
D|-6-----5---------|-6-----5----/8p6---|-6-----5---------|-6-----5----------|
A|---5-6---6-5-3-5-|---5-6---6-5-----5-|---5-6---6-5-3-5-|---5-6---6-5-/8p6-|
D|-----------------|-------------------|-----------------|------------------|
     * *   * * * *     * *   * *     *     * *   * * * *     * *   * * 
E|-----------------|-----------------|-----------------------------------|
B|-----------------|-----------------|-----------------------------------|
G|-----------------|-----------------|-----------------------------------|
D|-6-----5---------|-6-----5-----8---|-6-----5---------6-----5-----8-5\0-|
A|---5-6---6-5-3-5-|---5-6---6-5---5-|---5-6---6-5-3-5---5-6---6-5-8-5\0-|
D|-----------------|-----------------|-----------------------------8-5\0-|
     * *   * * * *     * *   * *   *     * *   * * * *   * *   * * 


[Chorus 2]

E|------------------------------|-----------------------------|
B|------------------------------|-----------------------------|
G|------------------------------|----------------------6-5----|
D|-8(8)-8-----7(7)-7-----8-7----|8(8)-8-----7(7)-7---------8-7|
A|-5(5)-5-----5(5)-5---------6-5|5(5)-5-----5(5)-5------------|
D|--------0-0--------0-0--------|-------0-0--------0-0--------|            
          * *        * *                * *        * *                             
E|------------------------------|-----------------------------------|
B|------------------------------|-----------------------------------|
G|------------------------------|-----------------------------------|
D|-8(8)-8-----7(7)-7-----8-7----|8(8)-8-----7(7)-7-----8\5-5\0-0(0)-|  
A|-5(5)-5-----5(5)-5---------6-5|5(5)-5-----5(5)-5-----8\5-5\0-0(0)-|
D|--------0-0--------0-0--------|-------0-0--------0-0-8\5-5\0-0(0)-|
          * *        * *                * *        * *             
E|------------------------------|-----------------------------|
B|------------------------------|-----------------------------|
G|------------------------------|----------------------6-5----|
D|-8(8)-8-----7(7)-7-----8-7----|8(8)-8-----7(7)-7---------8-7|
A|-5(5)-5-----5(5)-5---------6-5|5(5)-5-----5(5)-5------------|
D|--------0-0--------0-0--------|-------0-0--------0-0--------|            
          * *        * *                * *        * *              
E|------------------------------|-----------------------------------------------|
B|------------------------------|-----------------------------------------------|
G|------------------------------|-----------------------------------------------|
D|-8(8)-8-----7(7)-7-----8-7----|8(8)-8-----7(7)-7-----8-8\5-5\0-0-/5-6(6)---\0-|  
A|-5(5)-5-----5(5)-5---------6-5|5(5)-5-----5(5)-5-----8-8\5-5\0-0-/5-6(6)---\0-|
D|--------0-0--------0-0--------|-------0-0--------0-0-8-8\5-5\0-0-/5-6(6)---\0-|
          * *        * *                * *        * *             

[Outro]
   
E|----------------------------------------------------------------------------------|
B|----------------------------------------------------------------------------------|
G|----------------------------------------------------------------------------------|
D|-5(5)--/10(10)--\0(0)-------------------------------------------------------------|
A|-5(5)--/10(10)--\0(0)--5--------------------------------------------------(5)-----|
D|-5(5)--/10(10)--\0(0)--5--------------------------------------------------(5)-----|
                         N-----------------------------------------------------------|
                    Just tremolo pick the power chord until (guitar 1) gets to the vibrato. Make sure to then 
                    stop strumming and let the power chord ring out.
                    
************************************

| h   Hammer-on
| p   Pull-off
| r   Release
|(  )  Hold Note
| t   Tapping
| /   Slide up
| \   Slide down
| ~   Vibrato
| *  Palm mute
| N   Tremolo

************************************
Suggest correction
Give kudos to tab author, rate the tab!
1 2 3 4 5
comments
print report bad tab
guest
You may want to rate the tab now too:
select rating
Wanna post a correction for this tab? Suggest correction