Oops, an error
Loading. Please wait.

Shrub - On My 0Wn Tab

4 views 1 this week
no commentswrite comment
1 2 3 4 5
3 more votes to show rating
add to favorites
launch autoscroll
font size
0
reset
how to read this tab
guitar tuner
Autoscroll
slow
fast
+/-
esc
set tempo
stop
Help us to improve Ultimate-Guitar.com Take our survey!
×
Author
Difficulty
Tuning
novice
D A D G B E
[Intro]

e|---------------------------|
B|---------------------------|
G|---------------------------|
D|---------------------------| x8
A|-1-1~----------------------|
D|------2-2-2-2b-1-1-0-0-0-0-|
 



[Verse]

e|-------------------------|
B|-------------------------|
G|-------------------------|
D|-3-3---------------------| x8
A|-1-1-2-2-2-3-1-1-0-0-0-0-|
D|-----2-2-2-3-1-1-0-0-0-0-|


[Chorus]

e|-------------------------|
B|-------------------------|
G|-------------------------|
D|-3-3---------------------| x8
A|-1-1-2-2-2-3-1-1-0-0-0-0-|
D|-----2-2-2-3-1-1-0-0-0-0-|
       * * *         * * *

[Outro]

e|---------------------------|
B|---------------------------|
G|---------------------------|
D|---------------------------| x4
A|-1-1~----------------------|
D|------2-2-2-2b-1-1-0-0-0-0-|

This is probably one of the most simple "songs" I've come up with, but I just thought it was a fun little
song and I thought I'd share it with you all. :)
If you want a reference to play, I have a video for it (I came up with it with distortion)
https://www.youtube.com/watch?v=vD1qov2T5sE

************************************

| b  Bend
| *  Palm mute
| ~  Vibrato

************************************
Suggest correction
Give kudos to tab author, rate the tab!
1 2 3 4 5
comments
print report bad tab
guest
You may want to rate the tab now too:
select rating
Wanna post a correction for this tab? Suggest correction