Oops, an error
Loading. Please wait.

Throne Of Heads - Voices From The Fog tab

52 views 6 this week
no commentswrite comment
1 2 3 4 5
3 more votes to show rating
add to favorites
×
Save as Personal and add changes to this tab that will be seen only by you. Learn more ›
×
You can save this tab as Personal to edit and correct it or add notes. All changes will be seen only by you. Learn more »
launch autoscroll
font size
0
reset
how to read this tab
guitar tuner
edit
Autoscroll
slow
fast
+/-
esc
set tempo
stop
[Intro]
    |                       |                    |                 |
d|----------------------------------------------------------------------------|
A|----------------------------------------------------------------------------|
F|--12-11-9-12-11-9-12-11-9-10-9-7-10-9-7-10-9-7-8-7-5-8-7-5-8-7-5-7-6-4-7-6-4|
C|----------------------------------------------------------------------------|
G|----------------------------------------------------------------------------|
C|----------------------------------------------------------------------------|
         |                 |           v-Slight Retardando    A Tempo      
d|---------------------------------------------------------------------------|
A|---------------------------------------------------------------------------|
F|-7-6-4-5-4-2-5-4-2-5-4-2-3-2-0-3-2-0-3-2-0-2b(3)r~~~~----------------------|
C|---------------------------------------------------------------------------|
G|---------------------------------------------------------------------------|
C|---------------------------------------------------------------------------|

Guitar II:
Start this part half a second before Guitar I finishes the vibrato
   *  *  *     *  *  *    s    *  *  *     *  *  *   s     *  *  *     *  *
d|---------------------------------------------------------------------------|
A|---------------------------------------------------------------------------|
F|---------------------------------------------------------------------------|
C|---------0-----------0---------------0-----------0---------------0---------|
G|---------------------------------------------------------------------------|
C|-0--0--0-----0--0--0---3~~~--0--0--0-----0--0--0---5~~~--0--0--0-----0--0--|

  *   s     *  *  *     *  *  *   s 
d|------------------------------------|
A|------------------------------------|
F|------------------------------------|  2x
C|--0---------------0-----------0-----|  
G|------------------------------------|
C|0---6~~~--0--0--0-----0--0--0---8~~~|


Guitar II
   * * s * * s * s * * s * * s * s * * s * * s * s * * s * * s * s * * s * * s * s 
d|---------------------------------------------------------------------------------|
A|---------------------------------------------------------------------------------|
F|---------------------------------------------------------------------------------|
C|---------------------------------------------------------------------------------|
G|-----------3---2-----------1---2-----------3---2-----------1---2-----------3---2-|
C|-0-0-1-0-0---0---0-0-3-0-0---0---0-0-1-0-0---0---0-0-3-0-0---0---0-0-1-0-0---0---|
  * * s * * s * s * * s * * s * s * * s * * s * s
d|------------------------------------------------|
A|------------------------------------------------|
F|------------------------------------------------|
C|------------------------------------------------|
G|----------1---2-----------3---2-----------1---2-|
C|0-0-3-0-0---0---0-0-1-0-0---0---0-0-3-0-0---0---|


Guitar II
  *     * *     *     * *   *     *     * *     *     * *   *    * * *           V-Ring Out
d|----------------------------------------------------------------------------------|
A|----------------------------------------------------------------------------------|
F|----------------------------------------------------------------------------------|
C|0-1---0-0-4---0-1---0-0-4-0-1---0-1---0-0-4---0-1---0-0-4-0-3--0-0-0-5-3-------5--|
G|0-1---0-0-4---0-1---0-0-4-0-1---0-1---0-0-4---0-1---0-0-4-0-3--0-0-0-----5-3p0-5--|
C|0-1---0-0-4---0-1---0-0-4-0-1---0-1---0-0-4---0-1---0-0-4-0-3--0-0-0-----------5--|
  **** **** **** **** V-Guitar I TR
d|--------------------|------------|--------------|------------|--------------------|
A|--------------------|*-----------|--------------|------------|-------------------*|
F|--------------------|7(77777)9(9)|--------------|------------|--------------------| 4X
C|3333-5555-6666-8888-|------------|7(77777)10(10)|------------|----------7(7)9(999)|
G|3333-5555-6666-8888-|*-----------|--------------|8(88888)7(7)|10(101010)---------*|
C|3333-5555-6666-8888-|------------|--------------|------------|--------------------|

Guitar II same time as ^^^^
   * * * s * * s * s * * s * * s * s * * s * * s * s       *     *
d|---------------------------------------------------------------------------|
A|---------------------------------------------------------------------------|
F|---------------------------------------------------------------------------|
C|-----5/7-------------5/7-------------5/7-------------3-2-0-2-1-0-1---------|
G|-------------6---5-----------6---5-----------6---5---3-2-0-2-1-0-1---------|
C|-0-0-0---0-0---0---0-0---0-0---0---0-0---0-0---0-----3-2-0-2-1-0-1---------|


            1        2        3        4
   rythm is quarter, triplet, triplet, quintouplet on all of them
   on the barred 5  (V) when you go for the quintouplet do a bar 5 6 8 5 6 8 sextouplet
d|---------------------|---|---------------------------------------------------|
A|---------------------|---|---------------------------------------------------|
F|-5-------------------| X4|---------------------------------------------------|
C|-5-----3-----6-----5-|---|-0-000-000-00000----0-000-000--4-------------------|
G|-3-----3-----6-----5-|---|-0-000-000-00000----0-000-000--3-------------------|
C|-------3-----6-----5-|---|-0-000-000-00000----0-000-000--4-------------------|

[Outro]
d|---------------------------------------------------------------------------|
A|---------------------------------------------------------------------------|
F|-6h7p6~~~---------6h7p6~~~-------------------------------------------------|
C|---------7~8~~5~~~--------11~13~~10~~~4h5p4~~~---------4h5p4~~~3-6--0------|
G|----------------------------------------------8~5~~2~~~--------3-6--0------|
C|---------------------------------------------------------------3-6--0------|



************************************

| ~  Vibrato
| s  Squeal w/out vibrato
| p  Pull-off
| /  Slide up
| h  Hammer-on
| *  Palm Mute
| TR Tremello Picking
************************************
Suggest correction
Creating personal tab
Creating personal tab
You can edit any tab online and save it as your Personal.

You can edit, replace or remove any tab part or add personal notes – all changes will be seen only by you.

Personal tabs can be accessed anytime from any device, even offline.
Learn more »
Give kudos to tab author, rate the tab!
1 2 3 4 5
comments
print report bad tab
guest
You may want to rate the tab now too:
select rating
Wanna post a correction for this tab? Suggest correction