Oops, an error
Loading. Please wait.

All About The Class War Tab

28 views 1 this week
no commentswrite comment
1 2 3 4 5
3 more votes to show rating
add to favorites
launch autoscroll
font size
0
reset
how to read this tab
guitar tuner
Autoscroll
slow
fast
+/-
esc
set tempo
stop
Help us to improve Ultimate-Guitar.com Take our survey!
×
Author
Tabs by: THELOOT


(Chord Key)


   E   D   C   G   A   B  
e|-------------------------|
B|-------------------------|
G|-9---7---5---4---2---4---|
D|-9---7---5---5---2---4---|
A|-7---5---3---5---0---2---|
E|-------------3-----------|


[Intro]

   E     D  E       E     D  E                  D  E         E     D  E
e|----------------------------------------------------------------------------|
B|-5--x--3--5--x-x--5--x--3--5---------------x--3--5--5/4-4--5--x--3--5--x-x--|
G|-4--x--2--4--x-x--4--x--2--4---------------x--2--4--x/x-x--4--x--2--4--x-x--|
D|-2--x--0--2--x-x--2--x--0--2--------4-0-2--x--0--2--2/1-1--2--x--0--2--x-x--|
A|------------------------------0h2h4-----------------------------------------|
E|----------------------------------------------------------------------------|


[Verse]

E    D   E
Life 
       D         E
what a bountiful supply
       C           G
For an inspiration garden
    C               A               B  C  B
The public eats the war and some do I 
E    D   E
Fight
     D                   E
with spears and pens and mics
           C           G
There’s no shortage of oppression 
   C              A            B
So draw until the wells have a try 


   B                      B                      B      B       C       D       E 
e|---------------------------------------------------------------------------------|
B|---------------------------------------------------------------------------------|
G|-4--4-4-4---2-----------4--4-4-4---2-----------4--4-4-4---2----------------------|
D|-4--4-4---4---4-2-4-5-4-4--4-4---4---4-2-4-5-4-4--4-4---4---4-2-4-5-4-2-4-5-4-2--|
A|-2--2-2-----------------2--2-2-----------------2--2-2----------------------------|
E|---------------------------------------------------------------------------------|


[Chorus]

A                     C    E       B
May we drink from the fire lake of misery
    A       C        E      B
And Brew me ale from summer stream
    A      C      E   B
And weep into the revolution 
     C          B
Sing rhythms of property


[Solo]

e|-----7-----7-----7-----7-----5-----5-----7-----7-----3---------3--------3-----3-----5-----5-------2-3-2-|
B|---8-----8-----8-----8-----7-----7-----8-----8-----5---5-3---5---5----5-----5-----5-----5-------4-------|
G|-9-----9-----9-----9-----7-----7-----9-----9-----5---------5--------5-----5-----6-----6-----2-4---------|
D|--------------------------------------------------------------------------------------------------------|
A|--------------------------------------------------------------------------------------------------------|
E|--------------------------------------------------------------------------------------------------------|

e|-----7-----7-----7-----7-----5-----5-----7-----7-----3---------3----3-3------5-------2------|
B|---8-----8-----8-----8-----7-----7-----8-----8-----5---5-3---5---5--5-5----5---5---4---4----|
G|-9-----9-----9-----9-----7-----7-----9-----9-----5---------5--------5-5--6-------4-------2--|
D|--------------------------------------------------------------------------------------------|
A|--------------------------------------------------------------------------------------------|
E|--------------------------------------------------------------------------------------------|


[Outro]

e|-------------------------------|
B|-------------------------------|
G|-9--x--7--9--9/8-8--5--x-x--4--|
D|-9--x--7--9--9/8-8--5--x-x--4--|
A|-7--x--5--7--7/6-6--3--x-x--2--|
E|-------------------------------|
                      Sing rhythms...


************************************

| x  Dead note
| h  Hammer-on
| /  Slide up

************************************
Suggest correction
Give kudos to tab author, rate the tab!
1 2 3 4 5
comments
print report bad tab
guest
You may want to rate the tab now too:
select rating
Wanna post a correction for this tab? Suggest correction