Oops, an error
Loading. Please wait.

Carried Away Tab

46 views 1 this week
no commentswrite comment
1 2 3 4 5
3 more votes to show rating
add to favorites
launch autoscroll
font size
0
reset
how to read this tab
guitar tuner
Autoscroll
slow
fast
+/-
esc
set tempo
stop
Help us to improve Ultimate-Guitar.com Take our survey!
×
Author
Difficulty
intermediate
Carried Away

Rest in Power Erik!

[Intro]

Lead Guitar

e|-------------|-------|----------|--------|------------|--------|---------|---------|----|
B|-5-5-5-6-5-3-|-5-----|-----/5-3-|-5------|----3-3-3-4-|-5------|-----5-3-|-5-------|----|
G|-------------|----\5-|-4-2------|--5-2-5-|-4----------|---/5---|-4-2-----|---5-4-5-|-2~-|
D|-------------|-------|----------|--------|------------|--------|---------|---------|----|
A|-------------|-------|----------|--------|------------|--------|---------|---------|----|
E|-------------|-------|----------|--------|------------|--------|---------|---------|----| 

Rhythm Guitar
                                               Lead starts
e|---0--------|---0--------|---0--------|------------|
B|---1--------|---1--------|---1--------|------------|
G|---2--------|---2--------|---2--------|-2----------|
D|------------|------------|------------|-2----------|
A|-0----------|-0----------|-0----------|-0----------|
E|-----0-1--4-|-----0-1--4-|-----0-1--4-|------------|

e|---0--------|---0---------|---0-----1-|-----0--3-|---1-----------|-1-1-x-1-x-|-0-0-x-------|
B|---1--------|---1---------|---1-----1-|-----0--0-|---3---------1-|-1-1-x-1-x-|-0-0-x-------|
G|---2--------|---2---------|---2-----2-|-----1--0-|---2-2-----2---|-2-2-x-2-x-|-1-1-x-------|
D|------------|-------------|-----------|----------|-0-----0h2-----|-3-3-x-3-x-|-2-2-x-------|
A|-0----------|-0-----------|-0---------|----------|---------------|-3-3-x-3-x-|-2-2-x-------|
E|-----0-1--4-|------0-1--4-|----0-1----|-1-0------|---------------|-1-1-x-1-x-|-0-0-x-0-4-0-|

   Lead ends                                 The say that I was...
e|---0--------|---0--------|---0--------|----------|
B|---1--------|---1--------|---1--------|----------|
G|---2--------|---2--------|---2--------|-2--------|
D|------------|------------|------------|-2--------|
A|-0----------|-0----------|-0----------|-0--------|
E|-----0-1--4-|-----0-1--4-|-----0-1--4-|----------|

[Verse 1]
...born
e|---0--------|---0---------|---0-----1-|-----0--3-|---1-----------|-1-1-x-1-x-|-0-0-x-------|
B|---1--------|---1---------|---1-----1-|-----0--0-|---3---------1-|-1-1-x-1-x-|-0-0-x-------|
G|---2--------|---2---------|---2-----2-|-----1--0-|---2-2-----2---|-2-2-x-2-x-|-1-1-x-------|
D|------------|-------------|-----------|----------|-0-----0h2-----|-3-3-x-3-x-|-2-2-x-------|
A|-0----------|-0-----------|-0---------|----------|---------------|-3-3-x-3-x-|-2-2-x-------|
E|-----0-1--4-|------0-1--4-|----0-1----|-1-0------|---------------|-1-1-x-1-x-|-0-0-x-0-4-0-|

...out                 A youth of...
e|---0--------|---0--------|
B|---1--------|---1--------|
G|---2--------|---2--------|
D|------------|------------|
A|-0----------|-0----------|
E|-----0-1--4-|-----0-1--4-|

[Verse 2]

...smoke
e|---0--------|---0---------|---0-----1-|-----0--3-|---1-----------|-1-1-x-1-x-|-0-0-x-------|
B|---1--------|---1---------|---1-----1-|-----0--0-|---3---------1-|-1-1-x-1-x-|-0-0-x-------|
G|---2--------|---2---------|---2-----2-|-----1--0-|---2-2-----2---|-2-2-x-2-x-|-1-1-x-------|
D|------------|-------------|-----------|----------|-0-----0h2-----|-3-3-x-3-x-|-2-2-x-------|
A|-0----------|-0-----------|-0---------|----------|---------------|-3-3-x-3-x-|-2-2-x-------|
E|-----0-1--4-|------0-1--4-|----0-1----|-1-0------|---------------|-1-1-x-1-x-|-0-0-x-0-4-0-|

...sins
e|---0--------|---0--------|---0--------|---0-------|
B|---1--------|---1--------|---1--------|---1-------|
G|---2--------|---2--------|---2--------|---2-------|
D|------------|------------|------------|-----------|
A|-0----------|-0----------|-0----------|-0-----0-3-|
E|-----0-1--4-|-----0-1--4-|-----0-1--4-|-----0-----|

[Bridge]

 I never...
e|-1-1-x---1-1-x-|---1-1-x---1-1-x-|-0-0-x-------x-|-0-1-0-|
B|-2-2-x---2-2-x-|---2-2-x---2-2-x-|-1-1-x-1-1-1-x-|-1-1-1-|
G|-3-3-x---3-3-x-|---3-3-x---3-3-x-|-2-2-x-2-2-2-x-|-2-2-2-|
D|-0-0-x---0-0-x-|-0-0-0-x---0-0-x-|-2-2-x-1-1-1-x-|-2-3-2-|
A|-----x-0-----x-|-------x-0-----x-|-0-0-x-------x-|-0-3-0-|
E|-----x-------x-|-------x-------x-|-----x-------x-|---1---|

If ever...
e|-1-1-x---1-1-x-|---1-1-x-0-0-0-x-|---------|---------|
B|-2-2-x---2-2-x-|---2-2-x-1-1-1-x-|---------|---------|
G|-3-3-x---3-3-x-|---3-3-x-2-2-2-x-|-9-7-5-4-|-9-7-5-4-|
D|-0-0-x---0-0-x-|-0-0-0-x-2-2-2-x-|-9-7-5-4-|-9-7-5-4-|
A|-----x-0-----x-|-------x-0-0-0-x-|-7-5-3-2-|-7-5-3-2-|
E|-----x-------x-|-------x-------x-|---------|---------|

[Chorus]

 I just...                           away  again...just got                   
e|-0~----|----------0-|----------0-|-1-1-1-3-3-3-|-0~------|----------0-|---------0-|
B|-1~----|---1------1-|---1------1-|-0-0-0-2-2-2-|-1~------|----1-----1-|---1-----1-|
G|-2~----|--2-2-----0-|--2-2-----0-|-0-0-0-3-3-3-|-2~------|---2-2----0-|--2-2----0-|
D|-2~----|----------2-|----------2-|-0-0-0-0-0-0-|-2~------|----------2-|---------2-|
A|-0~----|-3----3---3-|-3----3---3-|-2-2-2-------|-0~------|--3----3--3-|-3----3--3-|
E|-------|------------|------------|-3-3-3-------|---------|------------|-----------|

   Awaaaaaaaaaaaaaaaaay
e|-3-3-3-3-3-3-|-1-1-1-0-0-0-|
B|-0-0-0-0-0-0-|-0-0-0-0-0-0-|
G|-0-0-0-0-0-0-|-0-0-0-0-0-0-|
D|-0-0-0-0-0-0-|-0-0-0-0-0-0-|
A|-2-2-2-2-2-2-|-2-2-2-2-2-2-|
E|-3-3-3-3-3-3-|-3-3-3-3-3-3-|

[Verse 3]
...again                                        So after 18...
e|---0--------|---0--------|---0--------|---0--------|
B|---1--------|---1--------|---1--------|---1--------|
G|---2--------|---2--------|---2--------|---2--------|
D|------------|------------|------------|------------|
A|-0----------|-0----------|-0----------|-0----------|
E|-----0-1--4-|-----0-1--4-|-----0-1--4-|-----0-1--4-|

...years
e|---0--------|---0---------|---0-----1-|-----0--3-|---1-----------|-1-1-x-1-x-|-0-0-x-------|
B|---1--------|---1---------|---1-----1-|-----0--0-|---3---------1-|-1-1-x-1-x-|-0-0-x-------|
G|---2--------|---2---------|---2-----2-|-----1--0-|---2-2-----2---|-2-2-x-2-x-|-1-1-x-------|
D|------------|-------------|-----------|----------|-0-----0h2-----|-3-3-x-3-x-|-2-2-x-------|
A|-0----------|-0-----------|-0---------|----------|---------------|-3-3-x-3-x-|-2-2-x-------|
E|-----0-1--4-|------0-1--4-|----0-1----|-1-0------|---------------|-1-1-x-1-x-|-0-0-x-0-4-0-|

...out                 And now been...
e|---0--------|---0--------|
B|---1--------|---1--------|
G|---2--------|---2--------|
D|------------|------------|
A|-0----------|-0----------|
E|-----0-1--4-|-----0-1--4-|

[Verse 4]

...underground
e|---0--------|---0---------|---0-----1-|-----0--3-|---1-----------|-1-1-x-1-x-|-0-0-x-------|
B|---1--------|---1---------|---1-----1-|-----0--0-|---3---------1-|-1-1-x-1-x-|-0-0-x-------|
G|---2--------|---2---------|---2-----2-|-----1--0-|---2-2-----2---|-2-2-x-2-x-|-1-1-x-------|
D|------------|-------------|-----------|----------|-0-----0h2-----|-3-3-x-3-x-|-2-2-x-------|
A|-0----------|-0-----------|-0---------|----------|---------------|-3-3-x-3-x-|-2-2-x-------|
E|-----0-1--4-|------0-1--4-|----0-1----|-1-0------|---------------|-1-1-x-1-x-|-0-0-x-0-4-0-|

...high
e|---0--------|---0--------|---0--------|---0-------|
B|---1--------|---1--------|---1--------|---1-------|
G|---2--------|---2--------|---2--------|---2-------|
D|------------|------------|------------|-----------|
A|-0----------|-0----------|-0----------|-0---0-0-3-|
E|-----0-1--4-|-----0-1--4-|-----0-1--4-|-----------|
                  
[Bridge]

And as...
e|-1-1-x---1-1-x-|---1-1-x---1-1-x-|-0-0-x-------x-|-0-1-0-|
B|-2-2-x---2-2-x-|---2-2-x---2-2-x-|-1-1-x-1-1-1-x-|-1-1-1-|
G|-3-3-x---3-3-x-|---3-3-x---3-3-x-|-2-2-x-2-2-2-x-|-2-2-2-|
D|-0-0-x---0-0-x-|-0-0-0-x---0-0-x-|-2-2-x-1-1-1-x-|-2-3-2-|
A|-----x-0-----x-|-------x-0-----x-|-0-0-x-------x-|-0-3-0-|
E|-----x-------x-|-------x-------x-|-----x-------x-|---1---|

The more...
e|-1-1-x---1-1-x-|---1-1-x-0-0-0-x-|-------------|-------------|
B|-2-2-x---2-2-x-|---2-2-x-1-1-1-x-|-------------|-------------|
G|-3-3-x---3-3-x-|---3-3-x-2-2-2-x-|-9-9-x-7-7-x-|-5-5-x-4-4-x-|
D|-0-0-x---0-0-x-|-0-0-0-x-2-2-2-x-|-9-9-x-7-7-x-|-5-5-x-4-4-x-|
A|-----x-0-----x-|-------x-0-0-0-x-|-7-7-x-5-5-x-|-3-3-x-2-2-x-|
E|-----x-------x-|-------x-------x-|-------------|-------------|

 I know...
e|-5~-5-|-8-8-8-8-7-5-|-0-0-x-------x-|-0-1-0-|
B|-6~-6-|-6-6-6-6-6-6-|-1-1-x-1-1-1-x-|-1-1-1-|
G|-7~-7-|-5-5-5-5-5-5-|-2-2-x-2-2-2-x-|-2-2-2-|
D|-7~-7-|-------------|-2-2-x-1-1-1-x-|-2-3-2-|
A|-5~-5-|-------------|-0-0-x-------x-|-0-3-0-|
E|------|-------------|-----x-------x-|---1---|

 I keep...
e|-1-1-x---1-1-x-|---1-1-x-0-0-0-x-|---------|---------|---------------------------------|
B|-2-2-x---2-2-x-|---2-2-x-1-1-1-x-|---------|---------|---------------------------------|
G|-3-3-x---3-3-x-|---3-3-x-2-2-2-x-|-9-7-9-5-|-9-7-5-4-|-7-7-7-7-7-7-7-7-7-7-7-7-7-7-7-7-|
D|-0-0-x---0-0-x-|-0-0-0-x-2-2-2-x-|-9-7-9-5-|-9-7-5-4-|-7-7-7-7-7-7-7-7-7-7-7-7-7-7-7-7-|
A|-----x-0-----x-|-------x-0-0-0-x-|-7-5-7-3-|-7-5-3-2-|-5-5-5-5-5-5-5-5-5-5-5-5-5-5-5-5-|
E|-----x-------x-|-------x-------x-|---------|---------|---------------------------------|

[Chorus]

      Am               F    C
Let's just get carried away again
F    C      G    Dm
Away again, away again
      Am               F    C
Let's just got carried away again
F    C      G
Away again, away again
      Am               F    C
Let's just get carried away again
F    C      G    Dm
Away again, away again
      Am               F    C
Let's just get carried away again
F    C      G         
Away again, away again

[Solo]

| F C | G Am |
| F C | G Am |
| F C | G Am |
| F Am | E E |

| F C | G Am |
| F C | G Am |
| F C | G Am |
| F C | E E |

e|----------3-|-3-1-0-|---0---0-|----0--------|---------3-|-3-1-0-|---0---0-|-/7-7-7-7-7-7-7-7-|
B|------------|-------|-1---1---|-/3--3-1---0-|-----------|-------|-1---1---|-/9-9-9-9-9-9-9-9-|
G|-/5-5-2-0---|-------|---------|---------2---|-5-5-2-0---|-------|---------|-/9-9-9-9-9-9-9-9-|
D|------------|-------|---------|-------------|-----------|-------|---------|-/9-9-9-9-9-9-9-9-|
A|------------|-------|---------|-------------|-----------|-------|---------|-/7-7-7-7-7-7-7-7-|
E|------------|-------|---------|-------------|-----------|-------|---------|------------------|

e|-------------15-|-15-13-12-|----12----12-|----12-------------|-------------15-|-15-13-12-|
B|-13-13-10-------|----------|-13----13----|-15----15-13----12-|-13-13-10-------|----------|
G|----------12----|----------|-------------|-------------14----|----------12----|----------|
D|----------------|----------|-------------|-------------------|----------------|----------|
A|----------------|----------|-------------|-------------------|----------------|----------|
E|----------------|----------|-------------|-------------------|----------------|----------|

e|----12----12-|-16~-|
B|-13----13----|-----|
G|-------------|-----|
D|-------------|-----|
A|-------------|-----|
E|-------------|-----|

[Outro]

e|---0--------|---0--------|---0--------|---0--------|
B|---1--------|---1--------|---1--------|---1--------|
G|---2--------|---2--------|---2--------|---2--------|
D|------------|------------|------------|------------| x3
A|-0----------|-0----------|-0----------|-0----------|
E|-----0-1--4-|-----0-1--4-|-----0-1--4-|-----0-1--4-|

Come in on the 4th bar
e|---------|----|-----|-----|
B|-5-6-5-3-|-5~-|-----|-----|
G|---------|----|--\5-|-4-2-|
D|---------|----|-----|-----| x2
A|---------|----|-----|-----|
E|---------|----|-----|-----| 

End on Am
 
Suggest correction
Give kudos to tab author, rate the tab!
1 2 3 4 5
comments
print report bad tab
guest
You may want to rate the tab now too:
select rating
Wanna post a correction for this tab? Suggest correction