Oops, an error
Loading. Please wait.

Citizens Drive tab

232 views 1 this week
no commentswrite comment
1 2 3 4 5
1 last vote to show rating
add to favorites
×
Save as Personal and add changes to this tab that will be seen only by you. Learn more ›
×
You can save this tab as Personal to edit and correct it or add notes. All changes will be seen only by you. Learn more »
launch autoscroll
font size
0
reset
how to read this tab
guitar tuner
edit
Autoscroll
slow
fast
+/-
esc
set tempo
stop
Author
Tabs By: THELOOT

(Chord Key)

   Em  B   C   D5  E   D   Am  
e|-0--------------------------------|
B|-0---4---5---7---9---3---1--------|
G|-0---4---5---7---9---2---2--------|
D|-2---4---5---7---9---0---2--------|
A|-2---2---3---5---7-------0--------|
E|-0--------------------------------|


[Intro]

e|------------------------------------------------------------------------------------|
B|-0-------0-0-------0--0----------0--0--0--0--0--0--0-0---0-0------------------------|
G|-0-------0-0-------0--0----------0--0--0--0--0--0--0-0---0-0-4----------------------|
D|-5-5-5-5-4-5-5-5-5-7--9--9--9--9-7--9--9--9--9--9--9-5---5-4-4---------------4p2p0--|
A|-7-7-7-7-5-7-7-7-7-9-10-10-10-10-9-10-10-10-10-10-10-7---7-5-2-2-2-2-2-4p2p0--------|
E|------------------------------------------------------------------------------------|


e|---------------------------------------------------------------------------------------------------|
B|-0-------0-0-------0--0----------0--0--0--0--0--0--------------------------------------------------|
G|-0-------0-0-------0--0----------0--0--0--0--0--0-4-4-4p2p0-------------------4-4-4p2p0------------|
D|-5-5-5-5-4-5-5-5-5-7--9--9--9--9-7--9--9--9--9--9-----------4-4-4p2p0-2---0-2----------4-4-4p2p0-2-|
A|-7-7-7-7-5-7-7-7-7-9-10-10-10-10-9-10-10-10-10-10-----------------------2--------------------------|
E|---------------------------------------------------------------------------------------------------|


[Verse 1]

e|---0---0---0---0---0---0-------------0---0---0---0---0---0-----------------|
B|---0---0---0---0---0---0-------------0---0---0---0---0---0-----------------|
G|---0---0---0---0---0---0-4-0-4p2p0---0---0---0---0---0---0-4-0-4p2p0-------|
D|-2---2---2---2---2---2-------------2---2---2---2---2---2-------------------|
A|-2---2---2---2---2---2-------------2---2---2---2---2---2-------------------|
E|-0---0---0---0---0---0-------------0---0---0---0---0---0-------------------|


Em                    
No one knows my politics like the postman
                 C       B
He brings me the radical rag
Em                                     D             Em
I bet the neighbors are wondering what I got in this bag.
     C            B               E       D5   C
They say the city virus broke its borders once again,
Am            Em
Fell down the lane,
B
Packed up and ran.


[Chorus]

E                   D5      E
Where the doors all lock at nine
C     D5            B
Every creak is like cannon fire.


[Bridge]

(play on mandolin)

e|-----7-6-7---7-6-7---7-6-7-7h9p7-6-7---7-6-7---7-6-7---7-6-7-7h9p7-6-7-----|
B|-9-5-------5-------5-----------------7-------7-------7---------------------|
G|-9-------------------------------------------------------------------------|
D|-9-------------------------------------------------------------------------|
A|-7-------------------------------------------------------------------------|
E|---------------------------------------------------------------------------|

e|---7-6-7---7-6-7---7-6-7-7h9p7-6-7---7-6-7---7-6-7---7-6-7-7h9p7-----------|
B|-5-------5-------5-----------------7-------7-------7-------------8-7-------|
G|---------------------------------------------------------------------9-----|
D|---------------------------------------------------------------------------|
A|---------------------------------------------------------------------------|
E|---------------------------------------------------------------------------|

(guitar over mandolin chords)

e|----------------------------------|                          |------------|
B|----------------------------------|                          |------------|
G|----------------------------------| -(2x)                    |------------|
D|----------------------------------| -Drop out with lyrics    |------------| 
A|---------------------------2------|                          |-2--3--2--0-|
E|-0--0--3--2------------2------0---|                          |------------|


E
Late, Our hero John Wayne
    B
Put guns in our living rooms, Gates around our names
          E
Gave us a face, To join up and hate
B              (FILL 1)
Keep Tiny Town pure and safe.


(FILL 1)

e|------------------|
B|------------------|
G|-2h4p2-4-5-4------|
D|-------------5-4--|
A|------------------|
E|------------------|

                  E
Behind these bolts
          E
There's a brewing revolt
            B
And it rusts
   B
In every one of us.
             E
Behind these bolts
          E
There's a brewing revolt 
            B
And it rusts
   (FILL 2)
In every one of us.


(FILL 2)

e|------------|
B|------------|
G|------------|
D|------------|
A|-2-0--------|
E|-----3-2-0--|


e|-------5-3-2-------------------------------------------|
B|-----3-------4--------------------------------------1--|
G|-2h4-----------4-2-2h4-4-4b---4---------------------2--|
D|----------------------------2-------------0-4-2p0---2--|
A|--------------------------------------------------2-0--|
E|-------------------------------------------------------|


e|-7-----7-----7-----7-----7--------------------7-----7--3--2--2--2-------|
B|-8-----7-----8-----7-----8--------------------8-----7--3--3--2--3-------|
G|-9--x--9--x--9--x--9--x--9-4-2h4-2-0--4-2h4-2-9--x--9--5--4--4--4-------|
D|-9--x--9--x--9--x--9--x--9--------------------9--x--9--5--4--4--4-------|
A|-7--x--7--x--7--x--7--x--7--------------------7--x--7--3--2--2--2-------|
E|------------------------------------------------------------------2-3-2-|
So put a yellow ribbon, On your exterminator......


e|-7-----7-----7-----7-----7-------------------------------|
B|-8-----7-----8-----7-----8-----------1----1---------1----|
G|-9--x--9--x--9--x--9--x--9-----------2----2p0-2p0---2----|
D|-9--x--9--x--9--x--9--x--9-0-4-2p0---2----2p0-2p0---2----|
A|-7--x--7--x--7--x--7--x--7---------2-0----0-------0------|
E|---------------------------------------------------------|


[Outro]

e|---------------------------------------------------------------------------------|
B|---------------------------------------------------------------------------------|
G|--------------------------------------12-12-12-12-12-5-5-5-5-5-2-2-2-2-2-5-5-4---|
D|-----------------------12-12-12-12-12-12-12-12-12-12-5-5-5-5-5-2-2-2-2-2-5-5-4---|
A|-----------------------12-12-12-12-12-10-10-10-10-10-3-3-3-3-3-0-0-0-0-0-3-3-2---|
E|-----------------------10-10-10-10-10--------------------------------------------|
   The world is sick, I think it might die, I'll watch it go through these dusty blinds.



************************************

| x  Dead note
| h  Hammer-on
| p  Pull-off
| b  Bend

************************************

            
            
Suggest correction
Creating personal tab
Creating personal tab
You can edit any tab online and save it as your Personal.

You can edit, replace or remove any tab part or add personal notes – all changes will be seen only by you.

Personal tabs can be accessed anytime from any device, even offline.
Learn more »
Give kudos to tab author, rate the tab!
1 2 3 4 5
comments
print report bad tab
guest
You may want to rate the tab now too:
select rating
Wanna post a correction for this tab? Suggest correction