Oops, an error
Loading. Please wait.

Every Town Will Celebrate Tab

157 views 15 this week
no commentswrite comment
1 2 3 4 5
3 more votes to show rating
add to favorites
launch autoscroll
font size
0
reset
how to read this tab
guitar tuner
Autoscroll
slow
fast
+/-
esc
set tempo
stop
Help us to improve Ultimate-Guitar.com Take our survey!
×
Author
Tabs by: THELOOT



(Chord Guide)

   C+  Am+ G   F   C9  Am  C   Dm

e|-3---3---3-------------------1---|
E|-1---1---3---1---3---1---1---3---|
B|-0---2---0---2---0---2---0---2---|
D|-2---2---0---3---2---2---2---0---|
A|-3---0---2---3---3---0---3-------|
E|---------3-----------------------|




[Intro]

   C+        Am+   G              F     C

e|-3-3--3-3--3--3--3-3--3-3--3-3-------------|
E|-1-1--1-1--1--1--3-3--3-3--3-3--1--1--1-1--|
B|-0-0--0-0--2--2--0-0--0-0--0-0--2--2--0-0--|  (2x)
D|-2-2--2-2--2--2--0-0--0-0--0-0--3--3--2-2--|
A|-3-3--3-3--0--0--2-2--2-2--2-2--3--3--3-3--|
E|-----------------3-3--3-3--3-3-------------|


   C         C9   C    G         F    C              C9   C    G              F     C

e|---------------------3-3--3-3--------------------------------3-3--3-3--3-3----------|
E|-1-1--1-1--3-3--1-1--3-3--3-3--1-1--1-1--1-1--1-1--3-3--1-1--3-3--3-3--3-3--1--1--1-|
B|-0-0--0-0--0-0--0-0--0-0--0-0--2-2--0-0--0-0--0-0--0-0--0-0--0-0--0-0--0-0--2--2--0-| Build up with C
D|-2-2--2-2--2-2--2-2--0-0--0-0--3-3--2-2--2-2--2-2--2-2--2-2--0-0--0-0--0-0--3--3--2-|  end with C
A|-3-3--3-3--3-3--3-3--2-2--2-2--3-3--3-3--3-3--3-3--3-3--3-3--2-2--2-2--2-2--3--3--3-|
E|---------------------3-3--3-3--------------------------------3-3--3-3--3-3----------|



[Verse]


(mute all strings on this part)

Well, big bad man come into town
Gave sweets to the children
Pushed their daddies around
Made the streets so bright in the zones of blight
No more fear in the hearts of whites


C+
He built a hall
    Am+  G
Put on a show
                            F        C
From high above watched his boulders roll
        C+                         Am+      G
Then he bought Main Street and the old town hall
   G                                        F     Am    G
He named his price: his face on every wall.       Oh         
                  F       Am      (fill 1)
his face on every wall


(fill 1)

   G

e|-3--3-1-0-0-0---3-1-0-0-0--|
E|-3------0-0-0-3-----0-0-0--|
B|-0------0-0-0-------0-0-0--|
D|-0-------------------------|
A|-2-------------------------|
E|-3-------------------------|



        C+             Am+      G
Now the factories have all shut down
                       F       C
No more cloth stitched in this town
       C+               Am+     G
So the only job for the boy and I
                     F    C
In the prison making tile shine
    C                 C9        C
Someday that man will come here too
          G          F        C
With that magic hat, spit and glue
      C 
He'll wash the stone
C9        C
Paint the brick
  G
Rename the streets
                        F    Am   G
And make the clocks all tick on   time
                     F      Am    (fill 1)
He'll make us run on time




[Chorus]

    C               F   G         C
And every town will celebrate someday
       F                   Am       G
Waving sweatshop flags and grande lattes
        Dm               F
Wearing culture on their backs
        G               Am
Wearing spirit on their hats
C                  F    G   C
One by one they'll join the parade
        G
And celebrate
C               F   G         C     G
Every town will celebrate someday



(Bridge)




   C         B         A#        F         G#        Cm        G
 
e|---------------------------------------------------------------3-3--3--3-3--3--|
E|---1-1-1-1---1-1-1-1---1-1-1-1---1-1-1-1---4-4-4-4---4-4-4-4---3-3--3--3-3--3--|
B|---0-0-0-0---0-0-0-0---0-0-0-0---2-2-2-2---5-5-5-5---5-5-5-5---4-4--4--4-4--4--|
D|---2-2-2-2---0-0-0-0---0-0-0-0---3-3-3-3---6-6-6-6---5-5-5-5---5-5--5--5-5--5--|
A|-3---------2---------1-----------3-3-3-3---6-6-6-6-3---------x-----------------|
E|-------------------------------1---------4-------------------x-----------------|
   Just like they do in Florida....


  C         B         A#        F         G#        C         G
 
e|------------------------------------------|
E|---1-1-1-1---1-1-1-1---1-1-1-1---1-1-1-1--|
B|---0-0-0-0---0-0-0-0---0-0-0-0---2-2-2-2--|
D|---2-2-2-2---0-0-0-0---0-0-0-0---3-3-3-3--|
A|-3---------2---------1-----------3-3-3-3--|
E|-------------------------------1----------|
   We'll be safely....


   G#      Cm      G       Cm   

e|-4-4--4--3-3--3--3-3--3--3-3--3--|
E|-4-4--4--4-4--4--3-3--3--4-4--4--|
B|-5-5--5--5-5--5--4-4--4--5-5--5--| (3X)  end on G 
D|-6-6--6--5-5--5--5-5--5--5-5--5--|       last time
A|---------------------------------|
E|---------------------------------|
  Of truth, adventure.....
Suggest correction
Give kudos to tab author, rate the tab!
1 2 3 4 5
comments
print report bad tab
guest
You may want to rate the tab now too:
select rating
Wanna post a correction for this tab? Suggest correction