Oops, an error
Loading. Please wait.

Fare Well Good Fellows tab

220 views 1 this week
2 commentsread comments
1 2 3 4 5
2 more votes to show rating
add to favorites
×
Save as Personal and add changes to this tab that will be seen only by you. Learn more ›
×
You can save this tab as Personal to edit and correct it or add notes. All changes will be seen only by you. Learn more »
launch autoscroll
font size
0
reset
how to read this tab
guitar tuner
edit
Autoscroll
slow
fast
+/-
esc
set tempo
stop
Author
Tabs by: THELOOT

(Chord Guide)

   D   A   E   F#  B   C#  E5   F5  E+
e|-2-------0---2------------------------|
B|-3---2---0---2---3---5------------5---|
G|-2---2---1---2---4---6---9---10---4---|
D|-0---2---2---4---4---6---x----x---2---|
A|-----0---2---4---2---4---7----8---2---|
E|---------0---2------------------------|


[Intro]

e|-----------------------------------|
B|-----2-------2-------2---3---2-----|
G|---2---2---2---2---2---2---2---2---|
D|-4-------4-------------------------|  (2x)
A|-----------------0-----------------|
E|-----------------------------------|
   PM-----------------------------|


   D         A           E           D         A       E   
e|-----3p2-2-------------0-0-0-0-0-0-2-2-3p2-2---------0-0-0-0-2-2-0-0-------|
B|-----3---3-----2-2-----0-0-0-0-0-0-3-3-3---3-2-2-2-2-0-0-0-0-0-0-0-0-------|
G|-2-2-2---2-----2-2-----1-1-1-1-1-1-2-2-2---2-2-2-2-2-1-1-1-1-1-1-1-1-------|
D|-0-0-----0-2-2-2-2-----2-2-2-2-2-2-0-0-0---0-2-2-2-2-2-2-2-2-2-2-2-2-------|
A|-----------0-0-----2-2-2-2-2-2-2-2-----------0-0-0-0-2-2-2-2-2-2-2-2-------|
E|-------------------0-0-0-0-0-0-0-0-------------------0-0-0-0-0-0-0-0-------|
   PM-|      PM-|    PM-|


   D         A       E               D         A       E               F
e|-2-2-3p2-2---------0-0-0-0-2-2-0-0-2-2-3p2-2---------0-0-0-0-0-0-0-0--------------------------------|
B|-3-3-3---3-2-2-2-2-0-0-0-0-0-0-0-0-3-3-3---3-2-2-2-2-0-0-0-0-0-0-0-0--------------------------------|
G|-2-2-2---2-2-2-2-2-1-1-1-1-1-1-1-1-2-2-2---2-2-2-2-2-1-1-1-1-1-1-1-1-10-10-10-10-10-10-10-10-10-10--|
D|-0-0-0---0-2-2-2-2-2-2-2-2-2-2-2-2-0-0-0---0-2-2-2-2-2-2-2-2-2-2-2-2-10-10-10-10-10-10-10-10-10-10--|
A|-----------0-0-0-0-2-2-2-2-2-2-2-2-----------0-0-0-0-2-2-2-2-2-2-2-2--8--8--8--8--8--8--8--8--8--8--|
E|-------------------0-0-0-0-0-0-0-0-------------------0-0-0-0-0-0-0-0--------------------------------|


[Verse]

F#                            A
Fare well, good fellows, your ways are not for me
D              A             D            E
Fare well good fellows, your ways are not for me
F#                      A          
Rest upon your laurels, glad you found your peace
     D              A             D            E
But, fare well good fellows, your ways are not for me


[Chorus]

F#   
A rappin' at the chapel door
A               E
Sweepin' at the enemies floor
F#
Do not touch or make a sound
A              E
Keep your eyes upon the ground

D                     A        D                 A
I read your countless volumes, shunned your many sins
      D              A             D                E+
But I cannot find salvation in the rattlin' of your tins
D                   A             D                  A
I wish good to your children, and their own children too
         D               A              D                 E       E5  F5
But your armour will not fit me, though fine it's suiting you


[Bridge]

        F#      E    B    
Suitin' you, 
C#      D     A     D    A
suitin' you.
        F#      E    B    
Suitin' you, 
C#      D     A     D    A
suitin' you.


[Outro]

             D               A       E                A
I said, your armour will not fit me
     D               A               E                A
Your armour will not fit me, though fine it's suitin' you



END on an A



************************************

| x  Dead note
| p  Pull-off
| PM palm mute

************************************

            
            
Suggest correction
Creating personal tab
Creating personal tab
You can edit any tab online and save it as your Personal.

You can edit, replace or remove any tab part or add personal notes – all changes will be seen only by you.

Personal tabs can be accessed anytime from any device, even offline.
Learn more »
Give kudos to tab author, rate the tab!
1 2 3 4 5
comments
print report bad tab
2 comments total.
0 reply
psackman1 384 Aug 27, 2016 03:40 AM

nicely done! do you know the chords to drinking song from the home stretch, or lucky number 31 by any chance?

0 reply
gregluty 475 Aug 27, 2016 01:41 PM

No, but I can figure those songs out next, this has become my new hobby

guest
You may want to rate the tab now too:
select rating
Wanna post a correction for this tab? Suggest correction