Oops, an error
Loading. Please wait.

From The Rooftops Tab

52 views 6 this week
no commentswrite comment
1 2 3 4 5
3 more votes to show rating
add to favorites
launch autoscroll
font size
0
reset
how to read this tab
guitar tuner
Autoscroll
slow
fast
+/-
esc
set tempo
stop
Help us to improve Ultimate-Guitar.com Take our survey!
×
Author
Difficulty
intermediate
From The Rooftops

Live - My Parents' Basement Sessions - https://www.youtube.com/watch?v=cAP8HoCDJhc

[Intro]
e|-5--x--5--x-|--------0----|--------0----|-----------------------|
B|-6--x--6--x-|-----8-----8-|-----9-----9-|-----8--8h9p8--6-------|
G|-7--x--7--x-|-----6-------|-----7-------|-----6------------7----|
D|-7--x--7--x-|-/7----------|-/8----------|-/7--7---------------0-|
A|-5--x--5--x-|-------------|-------------|-----------------------|
E|----x-----x-|-------------|-------------|-----------------------|

e|----------5--x-|--------x--------x-|--------------------|-5--4--5--x-|
B|-------6-----x-|-----8--x--8--8--x-|--------6---------5-|-6--6--6--x-|
G|----7--------x-|-----6--x--6--6--x-|-----7---------6----|-7--4--7--x-|
D|-0-----------x-|-/7--7--x--7--7--x-|-/8--------/7-------|-7--6--7--x-|
A|-------------x-|--------x--------x-|--------------------|-5--4--5--x-|
E|-------------x-|--------x--------x-|--------------------|-5--4--5--x-|

[Verse 1]
e|-5--x--5--5--x-|----x--------x-|----x--------x-|----x--------x-|
B|-6--x--6--6--x-|-8--x--8--8--x-|-9--x--9--9--x-|-8--x--8--8--x-|
G|-7--x--7--7--x-|-6--x--6--6--x-|-7--x--7--7--x-|-6--x--6--6--x-|
D|-7--x--7--7--x-|-7--x--7--7--x-|-8--x--8--8--x-|-7--x--7--7--x-|
A|-5--x--5--5--x-|----x--------x-|----x--------x-|----x--------x-|
E|----x--------x-|----x--------x-|----x--------x-|----x--------x-|

e|-5--x--5--5--x-|----x--------x-|-6--x--6--6--x-|-------8--8-|
B|-6--x--6--6--x-|-8--x--8--8--x-|-6--x--6--6--x-|-5--6--8--8-|
G|-7--x--7--7--x-|-6--x--6--6--x-|-7--x--7--7--x-|-6--6--6--6-|
D|-7--x--7--7--x-|-7--x--7--7--x-|-8--x--8--8--x-|-5--5--5--5-|
A|-5--x--5--5--x-|----x--------x-|-8--x--8--8--x-|------------|
E|----x--------x-|----x--------x-|-6--x--6--6--x-|------------|

e|-5--x--5--5--x-|----x--------x-|----x--------x-|----x--------x-|
B|-6--x--6--6--x-|-8--x--8--8--x-|-9--x--9--9--x-|-8--x--8--8--x-|
G|-7--x--7--7--x-|-6--x--6--6--x-|-7--x--7--7--x-|-6--x--6--6--x-|
D|-7--x--7--7--x-|-7--x--7--7--x-|-8--x--8--8--x-|-7--x--7--7--x-|
A|-5--x--5--5--x-|----x--------x-|----x--------x-|----x--------x-|
E|----x--------x-|----x--------x-|----x--------x-|----x--------x-|

e|-5--x--5--5--x-|----x--------x-|-6--x--6--6--x-|-------8--8-|
B|-6--x--6--6--x-|-8--x--8--8--x-|-6--x--6--6--x-|-5--6--8--8-|
G|-7--x--7--7--x-|-6--x--6--6--x-|-7--x--7--7--x-|-6--6--6--6-|
D|-7--x--7--7--x-|-7--x--7--7--x-|-8--x--8--8--x-|-5--5--5--5-|
A|-5--x--5--5--x-|----x--------x-|-8--x--8--8--x-|------------|
E|----x--------x-|----x--------x-|-6--x--6--6--x-|------------|

[Chorus]
e|-3--3--3--3-|-3--3--3--3-|-5--x--5--5--x-|----x--------x-|
B|-3--3--3--3-|-5--3--5--3-|-6--x--6--6--x-|-8--x--8--8--x-|
G|-3--3--3--3-|-5--3--5--3-|-7--x--7--7--x-|-7--x--7--7--x-|
D|-5--5--5--5-|------------|-7--x--7--7--x-|-7--x--7--7--x-|
A|-5--5--5--5-|------------|-5--x--5--5--x-|-7--x--7--7--x-|
E|-3--3--3--3-|------------|----x--------x-|----x--------x-|

e|-10--10--10--10-|-10--10--10--x-|----------x-----------x-|-8--8--8---------|
B|-11--13--11--13-|-11--13--11--x-|-5--5--5--x--6--6--6--x-|-8--8--8--10--10-|
G|-12--10--10--10-|-10--10--10--x-|-6--6--6--x--6--6--6--x-|-6--6--6--8---8--|
D|-12--12--12--12-|-12--12--12--x-|-5--5--5--x--5--5--5--x-|-5--5--5--9---9--|
A|-10--10--10--10-|-10--10--10--x-|----------x-----------x-|-----------------|
E|----------------|-------------x-|----------x-----------x-|-----------------|

e|-3--3--3--3-|-3--3--3--3-|-5--x--5--5--x-|----x--------x-|
B|-3--3--3--3-|-5--3--5--3-|-6--x--6--6--x-|-8--x--8--8--x-|
G|-3--3--3--3-|-5--3--5--3-|-7--x--7--7--x-|-7--x--7--7--x-|
D|-5--5--5--5-|------------|-7--x--7--7--x-|-7--x--7--7--x-|
A|-5--5--5--5-|------------|-5--x--5--5--x-|-7--x--7--7--x-|
E|-3--3--3--3-|------------|----x--------x-|----x--------x-|

e|-10--10--10--10-|-10--10--10--x-|---------------|----------------|
B|-11--13--11--13-|-11--13--11--x-|-5--5--5--6--8-|----------------|
G|-12--10--10--10-|-10--10--10--x-|-6--6----------|----------------|
D|-12--12--12--12-|-12--12--12--x-|-5--5----------|-5h6p5----------|
A|-10--10--10--10-|-10--10--10--x-|---------------|--------8--5----|
E|----------------|-------------x-|---------------|--------------8-|

[Bridge]
e|-------5--5--x-|-----x--------x-|-----x--------x-|-----x-----------------|
B|-------6--6--x-|-/8--x--8--8--x-|-/9--x--9--9--x-|-/8--x--8h9p8--6-------|
G|-------7--7--x-|-/6--x--6--6--x-|-/7--x--7--7--x-|-/6--x------------7----|
D|----7-----5--x-|-/7--x--7--7--x-|-/8--x--8--8--x-|-/7--x---------------0-|
A|-5--------5--x-|-----x--------x-|-----x--------x-|-----x-----------------|
E|-------------x-|-----x--------x-|-----x--------x-|-----x-----------------|

e|----------5--x-|--------x--------x-|--------------------|-5--4--5--x-|
B|-------6-----x-|-----8--x--8--8--x-|--------6---------5-|-6--6--6--x-|
G|-7--7--------x-|-----6--x--6--6--x-|-----7---------6----|-7--4--7--x-|
D|-------------x-|-/7--7--x--7--7--x-|-/8--------/7-------|-7--6--7--x-|
A|-------------x-|--------x--------x-|--------------------|-5--4--5--x-|
E|-------------x-|--------x--------x-|--------------------|-5--4--5--x-|

[Verse 2]
e|-5--x--5--5--x-|----x--------x-|----x--------x-|----x--------x-|
B|-6--x--6--6--x-|-8--x--8--8--x-|-9--x--9--9--x-|-8--x--8--8--x-|
G|-7--x--7--7--x-|-6--x--6--6--x-|-7--x--7--7--x-|-6--x--6--6--x-|
D|-7--x--7--7--x-|-7--x--7--7--x-|-8--x--8--8--x-|-7--x--7--7--x-|
A|-5--x--5--5--x-|----x--------x-|----x--------x-|----x--------x-|
E|----x--------x-|----x--------x-|----x--------x-|----x--------x-|

e|-5--x--5--5--x-|----x--------x-|-6--x--6--6--x-|----x--------x-|
B|-6--x--6--6--x-|-8--x--8--8--x-|-6--x--6--6--x-|-8--x--8--8--x-|
G|-7--x--7--7--x-|-6--x--6--6--x-|-7--x--7--7--x-|-6--x--6--6--x-|
D|-7--x--7--7--x-|-7--x--7--7--x-|-8--x--8--8--x-|-7--x--7--7--x-|
A|-5--x--5--5--x-|----x--------x-|-8--x--8--8--x-|----x--------x-|
E|----x--------x-|----x--------x-|-6--x--6--6--x-|----x--------x-|
-
e|-5--x--5--5--x-|----x--------x-|----x--------x-|----x--------x-|
B|-6--x--6--6--x-|-8--x--8--8--x-|-9--x--9--9--x-|-8--x--8--8--x-|
G|-7--x--7--7--x-|-6--x--6--6--x-|-7--x--7--7--x-|-6--x--6--6--x-|
D|-7--x--7--7--x-|-7--x--7--7--x-|-8--x--8--8--x-|-7--x--7--7--x-|
A|-5--x--5--5--x-|----x--------x-|----x--------x-|----x--------x-|
E|----x--------x-|----x--------x-|----x--------x-|----x--------x-|

e|-5--x--5--5--x-|----x--------x-|-6--x--6--6--x-|----x--------x-|
B|-6--x--6--6--x-|-8--x--8--8--x-|-6--x--6--6--x-|-8--x--8--8--x-|
G|-7--x--7--7--x-|-6--x--6--6--x-|-7--x--7--7--x-|-6--x--6--6--x-|
D|-7--x--7--7--x-|-7--x--7--7--x-|-8--x--8--8--x-|-7--x--7--7--x-|
A|-5--x--5--5--x-|----x--------x-|-8--x--8--8--x-|----x--------x-|
E|----x--------x-|----x--------x-|-6--x--6--6--x-|----x--------x-|

[Chorus]
e|-3--3--3--3-|-3--3--3--3-|-5--x--5--5--x-|----x--------x-|
B|-3--3--3--3-|-5--3--5--3-|-6--x--6--6--x-|-8--x--8--8--x-|
G|-3--3--3--3-|-5--3--5--3-|-7--x--7--7--x-|-7--x--7--7--x-|
D|-5--5--5--5-|------------|-7--x--7--7--x-|-7--x--7--7--x-|
A|-5--5--5--5-|------------|-5--x--5--5--x-|-7--x--7--7--x-|
E|-3--3--3--3-|------------|----x--------x-|----x--------x-|

e|-10--10--10--10-|-10--10--10--x-|----------x-----------x-|-8--8--8---------|
B|-11--13--11--13-|-11--13--11--x-|-5--5--5--x--6--6--6--x-|-8--8--8--10--10-|
G|-12--10--10--10-|-10--10--10--x-|-6--6--6--x--6--6--6--x-|-6--6--6--8---8--|
D|-12--12--12--12-|-12--12--12--x-|-5--5--5--x--5--5--5--x-|-5--5--5--9---9--|
A|-10--10--10--10-|-10--10--10--x-|----------x-----------x-|-----------------|
E|----------------|-------------x-|----------x-----------x-|-----------------|

e|-3--3--3--3-|-3--3--3--3-|-5--x--5--5--x-|----x--------x-|
B|-3--3--3--3-|-5--3--5--3-|-6--x--6--6--x-|-8--x--8--8--x-|
G|-3--3--3--3-|-5--3--5--3-|-7--x--7--7--x-|-7--x--7--7--x-|
D|-5--5--5--5-|------------|-7--x--7--7--x-|-7--x--7--7--x-|
A|-5--5--5--5-|------------|-5--x--5--5--x-|-7--x--7--7--x-|
E|-3--3--3--3-|------------|----x--------x-|----x--------x-|

e|-10--10--10--10-|-10--10--10--x-|------|----------------|
B|-11--13--11--13-|-11--13--11--x-|-5--5-|----------------|
G|-12--10--10--10-|-10--10--10--x-|-6--6-|----------------|
D|-12--12--12--12-|-12--12--12--x-|-5--5-|-5h6p5----------|
A|-10--10--10--10-|-10--10--10--x-|------|--------8--5----|
E|----------------|-------------x-|------|--------------8-|

[Solo]
e|-5--5--x--5--5--x-|-0--0--x--0--0--x-|-6--6--x--6--6--x-|-5--5--x--6--5--x-|
B|-6--6--x--6--6--x-|-2--2--x--2--2--x-|-6--6--x--6--6--x-|-5--5--x--6--5--x-|
G|-7--7--x--7--7--x-|-0--0--x--0--0--x-|-7--7--x--7--7--x-|-6--6--x--7--6--x-|
D|-7--7--x--7--7--x-|-2--2--x--2--2--x-|-8--8--x--8--8--x-|-7--7--x--8--7--x-|
A|-5--5--x--5--5--x-|-0--0--x--0--0--x-|-8--8--x--8--8--x-|-7--7--x--8--7--x-|
E|-5--5--x--5--5--x-|-------x--------x-|-6--6--x--6--6--x-|-5--5--x--6--5--x-|

e|-10--10--x--10--10--x-|-------x--------x-|-6--6--x--6--6--x-|-------x--------x-|
B|-11--11--x--11--11--x-|-8--8--x--8--8--x-|-6--6--x--6--6--x-|-5--5--x--6--5--x-|
G|-12--12--x--12--12--x-|-6--6--x--6--6--x-|-7--7--x--7--7--x-|-6--6--x--6--6--x-|
D|-12--12--x--12--12--x-|-7--7--x--7--7--x-|-8--8--x--8--8--x-|-5--5--x--5--5--x-|
A|-10--10--x--10--10--x-|-------x--------x-|-8--8--x--8--8--x-|-------x--------x-|
E|-10--10--x--10--10--x-|-------x--------x-|-6--6--x--6--6--x-|-------x--------x-|

e|-----------------5-|-----------------5-|-----------------5-|-5--5-|
B|--------5-----6----|--------5-----6----|--------5-----6----|-6--6-|
G|-----6-----7-------|-----6-----7-------|-----6-----7-------|-7--7-|
D|-/5----------------|-/5----------------|-/5----------------|-7--7-|
A|-------------------|-------------------|-------------------|-5--5-|
E|-------------------|-------------------|-------------------|------|

e|---------8--8-|---------7--7-|-10--9--10--10-|---------------5-|
B|---------6--6-|---------6--6-|-9---8--10--10-|---------------6-|
G|---------7--7-|---------7--7-|-10--9--10--10-|---------------7-|
D|------0-------|------0-------|---------------|---------------7-|
A|-0h3----------|-0h3----------|---------------|-0--3p0--3--5--5-|
E|--------------|--------------|---------------|-----------------|

e|---------8--8-|---------7--7-|-10--9--10--10-|
B|---------6--6-|---------6--6-|-9---8--10--10-|
G|---------7--7-|---------7--7-|-10--9--10--10-|
D|------0-------|------0-------|---------------|
A|-0h3----------|-0h3----------|---------------|
E|--------------|--------------|---------------|

[Verse 3]
e|-5--x--5--5--x-|----x--------x-|----x--------x-|----x--------x-|
B|-6--x--6--6--x-|-8--x--8--8--x-|-9--x--9--9--x-|-8--x--8--8--x-|
G|-7--x--7--7--x-|-6--x--6--6--x-|-7--x--7--7--x-|-6--x--6--6--x-|
D|-7--x--7--7--x-|-7--x--7--7--x-|-8--x--8--8--x-|-7--x--7--7--x-|
A|-5--x--5--5--x-|----x--------x-|----x--------x-|----x--------x-|
E|----x--------x-|----x--------x-|----x--------x-|----x--------x-|

e|-5--x--5--5--x-|----x--------x-|-6--x--6--6--x-|----x--------x-|
B|-6--x--6--6--x-|-8--x--8--8--x-|-6--x--6--6--x-|-8--x--8--8--x-|
G|-7--x--7--7--x-|-6--x--6--6--x-|-7--x--7--7--x-|-6--x--6--6--x-|
D|-7--x--7--7--x-|-7--x--7--7--x-|-8--x--8--8--x-|-7--x--7--7--x-|
A|-5--x--5--5--x-|----x--------x-|-8--x--8--8--x-|----x--------x-|
E|----x--------x-|----x--------x-|-6--x--6--6--x-|----x--------x-|

e|-5--x--5--5--x-|----x--------x-|----x--------x-|----x--------x-|
B|-6--x--6--6--x-|-8--x--8--8--x-|-9--x--9--9--x-|-8--x--8--8--x-|
G|-7--x--7--7--x-|-6--x--6--6--x-|-7--x--7--7--x-|-6--x--6--6--x-|
D|-7--x--7--7--x-|-7--x--7--7--x-|-8--x--8--8--x-|-7--x--7--7--x-|
A|-5--x--5--5--x-|----x--------x-|----x--------x-|----x--------x-|
E|----x--------x-|----x--------x-|----x--------x-|----x--------x-|

e|-5--x--5--5--x-|----x--------x-|-6--x--6--6--x-|----x--------x-|
B|-6--x--6--6--x-|-8--x--8--8--x-|-6--x--6--6--x-|-8--x--8--8--x-|
G|-7--x--7--7--x-|-6--x--6--6--x-|-7--x--7--7--x-|-6--x--6--6--x-|
D|-7--x--7--7--x-|-7--x--7--7--x-|-8--x--8--8--x-|-7--x--7--7--x-|
A|-5--x--5--5--x-|----x--------x-|-8--x--8--8--x-|----x--------x-|
E|----x--------x-|----x--------x-|-6--x--6--6--x-|----x--------x-|

[Outro]
e|-5--5--x--5--5--x-|-0--0--x--0--0--x-|-6--6--x--6--6--x-|-0--0--x--0--0--x-|
B|-6--6--x--6--6--x-|-2--2--x--2--2--x-|-6--6--x--6--6--x-|-2--2--x--2--2--x-|
G|-7--7--x--7--7--x-|-0--0--x--0--0--x-|-7--7--x--7--7--x-|-0--0--x--0--0--x-|
D|-7--7--x--7--7--x-|-2--2--x--2--2--x-|-8--8--x--8--8--x-|-2--2--x--2--2--x-|
A|-5--5--x--5--5--x-|-0--0--x--0--0--x-|-8--8--x--8--8--x-|-0--0--x--0--0--x-|
E|-5--5--x--5--5--x-|-------x--------x-|-6--6--x--6--6--x-|-------x--------x-|

e|-5--5--x--5--5--x-|-------x--------x-|-6--6--x--6--6--x-|-5--5-|
B|-6--6--x--6--6--x-|-5--5--x--5--5--x-|-6--6--x--6--6--x-|-5--5-|
G|-7--7--x--7--7--x-|-6--6--x--6--6--x-|-7--7--x--7--7--x-|-6--6-|
D|-7--7--x--7--7--x-|-5--5--x--5--5--x-|-8--8--x--8--8--x-|-7--7-|
A|-5--5--x--5--5--x-|-------x--------x-|-8--8--x--8--8--x-|-7--7-|
E|-------x--------x-|-------x--------x-|-6--6--x--6--6--x-|-5--5-|

e|-5--5--x--5--5--x-|-0--0--x--0--0--x-|-6--6--x--6--6--x-|-------x--------x-|
B|-6--6--x--6--6--x-|-2--2--x--2--2--x-|-6--6--x--6--6--x-|-5--5--x--5--5--x-|
G|-7--7--x--7--7--x-|-0--0--x--0--0--x-|-7--7--x--7--7--x-|-6--6--x--6--6--x-|
D|-7--7--x--7--7--x-|-2--2--x--2--2--x-|-8--8--x--8--8--x-|-5--5--x--5--5--x-|
A|-5--5--x--5--5--x-|-0--0--x--0--0--x-|-8--8--x--8--8--x-|-------x--------x-|
E|-5--5--x--5--5--x-|-------x--------x-|-6--6--x--6--6--x-|-------x--------x-|

e|-5--5--x--5--5--x-|-------x--------x-|-6--6--x--6--6--x-|------|
B|-6--6--x--6--6--x-|-5--5--x--5--5--x-|-6--6--x--6--6--x-|-5--5-|
G|-7--7--x--7--7--x-|-6--6--x--6--6--x-|-7--7--x--7--7--x-|-6--6-|
D|-7--7--x--7--7--x-|-5--5--x--5--5--x-|-8--8--x--8--8--x-|-5--5-|
A|-5--5--x--5--5--x-|-------x--------x-|-8--8--x--8--8--x-|------|
E|-------x--------x-|-------x--------x-|-6--6--x--6--6--x-|------|

e|-----------------5-|----------5--5--5-|----------5--5--5-|-5--5-|
B|--------5-----6----|-5--5--5--6--6--6-|-5--5--5--6--6--6-|-6--6-|
G|-----6-----7-------|-6--6--6--7--7--7-|-6--6--6--7--7--7-|-7--7-|
D|-/5----------------|-5--5--5----------|-5--5--5----------|-7--7-|
A|-------------------|------------------|------------------|-5--5-|
E|-------------------|------------------|------------------|------|

e|---------8--8-|---------7--7-|-10--9--10--10-|---------------5-|
B|---------6--6-|---------6--6-|-9---8--10--10-|---------------6-|
G|---------7--7-|---------7--7-|-10--9--10--10-|---------------7-|
D|------0-------|------0-------|---------------|---------------7-|
A|-0h3----------|-0h3----------|---------------|-0--3p0--3--5--5-|
E|--------------|--------------|---------------|-----------------|

e|----------8--8-|---------7--7-|-10--9--10~-|-10--10--10-|
B|----------6--6-|---------6--6-|-9---8--10~-|-10--10--10-|
G|----------7--7-|---------7--7-|-10--9--10~-|-10--10--10-|
D|-0-----0-------|------0-------|------------|------------|
A|----3----------|-0h3----------|------------|------------|
E|---------------|--------------|------------|------------|



************************************

| x  Dead note
| h  Hammer-on
| p  Pull-off
| /  Slide up
| ~  Vibrato

************************************
Suggest correction
Give kudos to tab author, rate the tab!
1 2 3 4 5
comments
print report bad tab
guest
You may want to rate the tab now too:
select rating
Wanna post a correction for this tab? Suggest correction