Oops, an error
Loading. Please wait.

Thanks Bastards tab

version 1
version 1

Whole song

  • Live acoustic version, full song including solo pieces.

Interactive

6,426 views 9 this week
1 commentread comment
1 2 3 4 5
1 last vote to show rating
add to favorites
×
Save as Personal and add changes to this tab that will be seen only by you. Learn more ›
×
You can save this tab as Personal to edit and correct it or add notes. All changes will be seen only by you. Learn more »
launch autoscroll
font size
0
reset
how to read this tab
guitar tuner
edit
Autoscroll
slow
fast
+/-
esc
set tempo
stop
Difficulty
intermediate
This is as basic as i could get it you'll have to figure out the pace yourself i
was just sick of nobody ever puting this on here this is just chord structure/

Standard tuning


intro/verse
-3------7---8----------------------|
-3------8---8----------------------|
-4------7---9----------------------|
-----------------------------------|
-----------------------------------|
-----------------------------------|    then

pre chorus
-3---5---7---8-------8----7---3-----|
-3---5---8---8-------8----8---3-----|
-4---6---7---9-------9----7---4-----|
---------------------10---9---5-----|
---------------------10---7---5-----|
---------------------8--------3-----|

Feel free to improve upon it. 

            
            
Suggest correction
Creating personal tab
Creating personal tab
You can edit any tab online and save it as your Personal.

You can edit, replace or remove any tab part or add personal notes – all changes will be seen only by you.

Personal tabs can be accessed anytime from any device, even offline.
Learn more »
Give kudos to tab author, rate the tab!
1 2 3 4 5
comments
print report bad tab
1 comment total.
0 reply
StairwaytoHeavn 93 May 09, 2008 03:50 PM

It's alright, but the Em7 is an Em. Also, I'm pretty sure Erik plays the full bar chords not just the top 3 strings. It does sound like ths song though.

guest
Wanna post a correction for this tab? Suggest correction