Oops, an error
Loading. Please wait.

Thanks Bastards tab

version 3
version 3

Whole song

  • Live acoustic version, full song including solo pieces.

Interactive

280 views 1 this week
no commentswrite comment
1 2 3 4 5
3 more votes to show rating
add to favorites
×
Save as Personal and add changes to this tab that will be seen only by you. Learn more ›
×
You can save this tab as Personal to edit and correct it or add notes. All changes will be seen only by you. Learn more »
launch autoscroll
font size
0
reset
how to read this tab
guitar tuner
edit
Autoscroll
slow
fast
+/-
esc
set tempo
stop
Author
About this tab version
Live acoustic version, full song including solo pieces. Was this info helpful? Yes No
Title: Thanks Bastards (Live At Coyle St. Collective Apartment On 04-24-2005)
Artist: Erik Petersen

[Intro]

e|-------|--3--3--x--3L----3--x-------|--3--3--x--3L----3--x-------|
B|-------|--3--3--x--3L----3--x-------|--3--3--x--3L----3--x-------|
G|-------|--4--4--x--4L----4--x-------|--4--4--x--4L----4--x-------|
D|-------|--5--5--x--5L----5--x-------|--5--5--x--5L----5--x-------|
A|-------|--5--5--x--5L----5--x-------|--5--5--x--5L----5--x-------|
E|-------|--3--3--x--3L----3--x-------|--3--3--x--3L----3--x-------|

e|--7--7--x--7L----7--x-------|--8--8--x--8L----8--x-------|
B|--8--8--x--8L----8--x-------|--8--8--x--8L----8--x-------|
G|--9--9--x--9L----9--x-------|--9--9--x--9L----9--x-------|
D|--9--9--x--9L----9--x-------|--10-10-x--10L---10-x-------|
A|--7--7--x--7L----7--x-------|--10-10-x--10L---10-x-------|
E|--------x-----------x-------|--8--8--x--8L----8--x-------|

e|--3--3--x--3L----3--x-------|--3--3--x--3L----3--x-------|
B|--3--3--x--3L----3--x-------|--3--3--x--3L----3--x-------|
G|--4--4--x--4L----4--x-------|--4--4--x--4L----4--x-------|
D|--5--5--x--5L----5--x-------|--5--5--x--5L----5--x-------|
A|--5--5--x--5L----5--x-------|--5--5--x--5L----5--x-------|
E|--3--3--x--3L----3--x-------|--3--3--x--3L----3--x-------|

e|--7--7--x--7L----7--x-------|--8--8--x--8L----8--x-------|
B|--8--8--x--8L----8--x-------|--8--8--x--8L----8--x-------|
G|--9--9--x--9L----9--x-------|--9--9--x--9L----9--x-------|
D|--9--9--x--9L----9--x-------|--10-10-x--10L---10-x-------|
A|--7--7--x--7L----7--x-------|--10-10-x--10L---10-x-------|
E|--------x-----------x-------|--8--8--x--8L----8--x-------|


[Verse 1]

  Thank you Mr Officer
e|--3--3--x--3L----3--x-------|--3--3--x--3L----3--x-------|
B|--3--3--x--3L----3--x-------|--3--3--x--3L----3--x-------|
G|--4--4--x--4L----4--x-------|--4--4--x--4L----4--x-------|
D|--5--5--x--5L----5--x-------|--5--5--x--5L----5--x-------|
A|--5--5--x--5L----5--x-------|--5--5--x--5L----5--x-------|
E|--3--3--x--3L----3--x-------|--3--3--x--3L----3--x-------|

e|--7--7--x--7L----7--x-------|--8--8--x--8L----8--x-------|
B|--8--8--x--8L----8--x-------|--8--8--x--8L----8--x-------|
G|--9--9--x--9L----9--x-------|--9--9--x--9L----9--x-------|
D|--9--9--x--9L----9--x-------|--10-10-x--10L---10-x-------|
A|--7--7--x--7L----7--x-------|--10-10-x--10L---10-x-------|
E|--------x-----------x-------|--8--8--x--8L----8--x-------|

e|--3--3--x--3L----3--x-------|--3--3--x--3L----3--x-------|
B|--3--3--x--3L----3--x-------|--3--3--x--3L----3--x-------|
G|--4--4--x--4L----4--x-------|--4--4--x--4L----4--x-------|
D|--5--5--x--5L----5--x-------|--5--5--x--5L----5--x-------|
A|--5--5--x--5L----5--x-------|--5--5--x--5L----5--x-------|
E|--3--3--x--3L----3--x-------|--3--3--x--3L----3--x-------|

e|--7--7--x--7L----7--x-------|--8--8--x--8L----8--x-------|
B|--8--8--x--8L----8--x-------|--8--8--x--8L----8--x-------|
G|--9--9--x--9L----9--x-------|--9--9--x--9L----9--x-------|
D|--9--9--x--9L----9--x-------|--10-10-x--10L---10-x-------|
A|--7--7--x--7L----7--x-------|--10-10-x--10L---10-x-------|
E|--------x-----------x-------|--8--8--x--8L----8--x-------|


[Pre-chorus]

  For every time your gun goes off
e|--3--3--3-----0--0--0-------|--0--0--0-----0--0--0-------|
B|--3--3--3-----1--1--1-------|--0--0--0-----1--1--1-------|
G|--0--0--0-----0--0--0-------|--0--0--0-----0--0--0-------|
D|--0--0--0-----2--2--2-------|--2--2--2-----2--2--2-------|
A|--2--2--2-----3--3--3-------|--2--2--2-----3--3--3-------|
E|--3--3--3-------------------|--0--0--0-------------------|

e|--3--3--3-----0--0--0-------|--0--0--0-----0--0--0-------|
B|--3--3--3-----1--1--1-------|--0--0--0-----1--1--1-------|
G|--0--0--0-----0--0--0-------|--0--0--0-----0--0--0-------|
D|--0--0--0-----2--2--2-------|--2--2--2-----2--2--2-------|
A|--2--2--2-----3--3--3-------|--2--2--2-----3--3--3-------|
E|--3--3--3-------------------|--0--0--0-------------------|

e|--3--3--3-----0--0--0-------|--0--0--0-----0--0--0-------|
B|--3--3--3-----1--1--1-------|--0--0--0-----1--1--1-------|
G|--0--0--0-----0--0--0-------|--0--0--0-----0--0--0-------|
D|--0--0--0-----2--2--2-------|--2--2--2-----2--2--2-------|
A|--2--2--2-----3--3--3-------|--2--2--2-----3--3--3-------|
E|--3--3--3-------------------|--0--0--0-------------------|

e|--0--0--0-----0--0--0-------|--3--------3----------------------------|
B|--1--1--1-----0--0--0-------|--3--------3--------5--5--3--0----------|
G|--2--2--2-----0--0--0-------|--0--------0----------------------------|
D|--2--2--2-----2--2--2-------|--0--------0----------------------------|
A|--------------2--2--2-------|--2--------2----------------------------|
E|--------------0--0--0-------|--3--------3----------------------------|

e|--3L-------3L-3--4----------------------|
B|--3-----------------5--5--3--0----------|
G|--0-------------------------------------|
D|--0-------------------------------------|
A|--2-------------------------------------|
E|--3-------------------------------------|

e|--3--------5--5--4----------------------|--7--7--7--7--7--7--7--7----|
B|--3-----------------5--5--3--0----------|--8--8--8--8--8--8--8--8----|
G|--0-------------------------------------|--9--9--9--9--9--9--9--9----|
D|--0-------------------------------------|--9--9--9--9--9--9--9--9----|
A|--2-------------------------------------|--7--7--7--7--7--7--7--7----|
E|--3-------------------------------------|----------------------------|

e|--8--8--8--8--8--8--8--8----|--3--------5--5--4----------------------|
B|--8--8--8--8--8--8--8--8----|--3-----------------5--5--3--0----------|
G|--9--9--9--9--9--9--9--9----|--0-------------------------------------|
D|--10-10-10-10-10-10-10-10---|--0-------------------------------------|
A|--10-10-10-10-10-10-10-10---|--2-------------------------------------|
E|--8--8--8--8--8--8--8--8----|--3-------------------------------------|

e|--3--------5--5--4----------------------|--7--7--7--7--7--7--7--7----|
B|--3-----------------5--5--3--0----------|--8--8--8--8--8--8--8--8----|
G|--0-------------------------------------|--9--9--9--9--9--9--9--9----|
D|--0-------------------------------------|--9--9--9--9--9--9--9--9----|
A|--2-------------------------------------|--7--7--7--7--7--7--7--7----|
E|--3-------------------------------------|----------------------------|

e|--8--8--8--8--8--8--8s------|
B|--8--8--8--8--8--8--8s------|
G|--9--9--9--9--9--9--9s------|
D|--10-10-10-10-10-10-10s-----|
A|--10-10-10-10-10-10-10s-----|
E|--8--8--8--8--8--8--8s------|


[Verse 2]

  Thank you governor...
e|--3--3--x--3L----3--x-------|
B|--3--3--x--3L----3--x-------|
G|--4--4--x--4L----4--x-------|
D|--5--5--x--5L----5--x-------|
A|--5--5--x--5L----5--x-------|
E|--3--3--x--3L----3--x-------|

  Thank you governor           To the mayor and...
e|--3--3--x--3L----3--x-------|--7--7--x--7L----7--x-------|
B|--3--3--x--3L----3--x-------|--8--8--x--8L----8--x-------|
G|--4--4--x--4L----4--x-------|--9--9--x--9L----9--x-------|
D|--5--5--x--5L----5--x-------|--9--9--x--9L----9--x-------|
A|--5--5--x--5L----5--x-------|--7--7--x--7L----7--x-------|
E|--3--3--x--3L----3--x-------|--------x-----------x-------|

e|--8--8--x--8L----8--x-------|--3--3--x--3L----3--x-------|
B|--8--8--x--8L----8--x-------|--3--3--x--3L----3--x-------|
G|--9--9--x--9L----9--x-------|--4--4--x--4L----4--x-------|
D|--10-10-x--10L---10-x-------|--5--5--x--5L----5--x-------|
A|--10-10-x--10L---10-x-------|--5--5--x--5L----5--x-------|
E|--8--8--x--8L----8--x-------|--3--3--x--3L----3--x-------|

e|--3--3--x--3L----3--x-------|--7--7--x--7L----7--x-------|
B|--3--3--x--3L----3--x-------|--8--8--x--8L----8--x-------|
G|--4--4--x--4L----4--x-------|--9--9--x--9L----9--x-------|
D|--5--5--x--5L----5--x-------|--9--9--x--9L----9--x-------|
A|--5--5--x--5L----5--x-------|--7--7--x--7L----7--x-------|
E|--3--3--x--3L----3--x-------|--------x-----------x-------|


                               [Pre-chorus 2]

                               For all the times you've signed you name...
e|--8--8--8--8--8--8--8--8----|--3--3--x-----0--0--0-------|
B|--8--8--8--8--8--8--8--8----|--3--3--x-----1--1--1-------|
G|--9--9--9--9--9--9--9--9----|--0--0--x-----0--0--0-------|
D|--10-10-10-10-10-10-10-10---|--0--0--x-----2--2--2-------|
A|--10-10-10-10-10-10-10-10---|--2--2--x-----3--3--3-------|
E|--8--8--8--8--8--8--8--8----|--3--3--x-------------------|

  Someone out there dies...
e|--0--0--x-----0--0--0-------|--3--3--x-----0--0--0-------|
B|--0--0--x-----1--1--1-------|--3--3--x-----1--1--1-------|
G|--0--0--x-----0--0--0-------|--0--0--x-----0--0--0-------|
D|--2--2--x-----2--2--2-------|--0--0--x-----2--2--2-------|
A|--2--2--x-----3--3--3-------|--2--2--x-----3--3--3-------|
E|--0--0--x-------------------|--3--3--x-------------------|

e|--0--0--x-----0--0--0-------|--3--3--x-----0--0--0-------|
B|--0--0--x-----1--1--1-------|--3--3--x-----1--1--1-------|
G|--0--0--x-----0--0--0-------|--0--0--x-----0--0--0-------|
D|--2--2--x-----2--2--2-------|--0--0--x-----2--2--2-------|
A|--2--2--x-----3--3--3-------|--2--2--x-----3--3--3-------|
E|--0--0--x-------------------|--3--3--x-------------------|

e|--0--0--x-----0--0--0-------|--0-----x--0--0-------------|
B|--0--0--x-----1--1--1-------|--1-----x--0--0-------------|
G|--0--0--x-----0--0--0-------|--2-----x--0--0-------------|
D|--2--2--x-----2--2--2-------|--2-----x--2--2-----2-------|
A|--2--2--x-----3--3--3-------|--------x--2--2-----2-------|
E|--0--0--x-------------------|--------x--0--0-----0-------|

e|----------------------------|----------------------------|
B|----------------------------|----------------------------|
G|-----------------3-----2----|-----------------3-----2----|
D|-----2--2--2----------------|-----2-----2----------------|
A|--------2-----3-----3-------|--------2-----3-----3-------|
E|--0-------------------------|--0-----0-------------------|

e|----------------------------|----------------------------|
B|-----------------0-----1----|----------------------------|
G|-----3-----2----------------|-----2-----3-----2----------|
D|----------------------------|--2-----2-----2-----2--x----|
A|----------------------------|--3-----3-----3-----3--x----|
E|--3-----3-----3-----3-------|----------------------------|

e|----------------------------|----------------------------|
B|----------------------------|----------------------------|
G|-----------------3-----2----|-----------------3-----3----|
D|-----2-----2----------------|-----2-----2----------------|
A|--------2-----3-----3-------|--------2-----3-----3-------|
E|--0-----0-------------------|--0-----0-------------------|

e|----------------------------|--5--5--5--5--5--5--5--5----|
B|----------------------------|--7--7--7--7--7--7--7--7----|
G|-----3-----3-----2-----0----|--7--7--7--7--7--7--7--7----|
D|----------------------------|--7--7--7--7--7--7--7--7----|
A|----------------------------|--5--5--5--5--5--5--5--5----|
E|--3-----3-----3-----3-------|----------------------------|


[Chorus]

  Thanks bastards!
e|--8--------8--------x-----x-----x-----8--------8--------8--------8----------|
B|--8--------8--------x-----x-----x-----8--------8--------8--------8----------|
G|--9--------9--------x-----x-----x-----9--------9--------9--------9----------|
D|--10-------10-------x-----x-----x-----10-------10-------10-------10---------|
A|--10-------10-------x-----x-----x-----10-------10-------10-------10---------|
E|--8--------8--------x-----x-----x-----8--------8--------8--------8----------|

  You made me what I am...
e|--3--------3--------x-----x-----x-----3--------3--------3--------3----------|
B|--3--------3--------x-----x-----x-----3--------3--------3--------3----------|
G|--0--------0--------x-----x-----x-----0--------0--------0--------0----------|
D|--0--------0--------x-----x-----x-----0--------0--------0--------0----------|
A|--2--------2--------x-----x-----x-----2--------2--------2--------2----------|
E|--3--------3--------x-----x-----x-----3--------3--------3--------3----------|

e|--5--------5--------x-----x-----x-----5--------5--------5--------5----------|
B|--7--------7--------x-----x-----x-----7--------7--------7--------7----------|
G|--7--------7--------x-----x-----x-----7--------7--------7--------7----------|
D|--7--------7--------x-----x-----x-----7--------7--------7--------7----------|
A|--5--------5--------x-----x-----x-----5--------5--------5--------5----------|
E|--------------------x-----x-----x-------------------------------------------|

e|--7--------7--------x-----x-----x-----7--------7--------7--------7----------|
B|--8--------8--------x-----x-----x-----8--------8--------8--------8----------|
G|--9--------9--------x-----x-----x-----9--------9--------9--------9----------|
D|--9--------9--------x-----x-----x-----9--------9--------9--------9----------|
A|--7--------7--------x-----x-----x-----7--------7--------7--------7----------|
E|--------------------x-----x-----x-------------------------------------------|

e|--8--------8--------x-----x-----x-----8--------8--------8--------8----------|
B|--8--------8--------x-----x-----x-----8--------8--------8--------8----------|
G|--9--------9--------x-----x-----x-----9--------9--------9--------9----------|
D|--10-------10-------x-----x-----x-----10-------10-------10-------10---------|
A|--10-------10-------x-----x-----x-----10-------10-------10-------10---------|
E|--8--------8--------x-----x-----x-----8--------8--------8--------8----------|

e|--3--------3--------x-----x-----x-----3--------3--------3--------3----------|
B|--3--------3--------x-----x-----x-----3--------3--------3--------3----------|
G|--0--------0--------x-----x-----x-----0--------0--------0--------0----------|
D|--0--------0--------x-----x-----x-----0--------0--------0--------0----------|
A|--2--------2--------x-----x-----x-----2--------2--------2--------2----------|
E|--3--------3--------x-----x-----x-----3--------3--------3--------3----------|

e|--5--------5--------x-----x-----x-----5--------5--------5--------5----------|
B|--7--------7--------x-----x-----x-----7--------7--------7--------7----------|
G|--7--------7--------x-----x-----x-----7--------7--------7--------7----------|
D|--7--------7--------x-----x-----x-----7--------7--------7--------7----------|
A|--5--------5--------x-----x-----x-----5--------5--------5--------5----------|
E|--------------------x-----x-----x-------------------------------------------|

  I took the goods and ran
e|--7--------7--------x-----x-----x-----7--------7--------7--------7----------|
B|--8--------8--------x-----x-----x-----8--------8--------8--------8----------|
G|--9--------9--------x-----x-----x-----9--------9--------9--------9----------|
D|--9--------9--------x-----x-----x-----9--------9--------9--------9----------|
A|--7--------7--------x-----x-----x-----7--------7--------7--------7----------|
E|--------------------x-----x-----x-------------------------------------------|

  I took the goods and ran
e|--7--------7--------x-----x-----x-----7--------7--------7--------7----------|
B|--8--------8--------x-----x-----x-----8--------8--------8--------8----------|
G|--9--------9--------x-----x-----x-----9--------9--------9--------9----------|
D|--9--------9--------x-----x-----x-----9--------9--------9--------9----------|
A|--7--------7--------x-----x-----x-----7--------7--------7--------7----------|
E|--------------------x-----x-----x-------------------------------------------|

  I took the goods and ran
e|--7--------7--------x-----x-----x-----7--------7--------7--------7----------|
B|--8--------8--------x-----x-----x-----8--------8--------8--------8----------|
G|--9--------9--------x-----x-----x-----9--------9--------9--------9----------|
D|--9--------9--------x-----x-----x-----9--------9--------9--------9----------|
A|--7--------7--------x-----x-----x-----7--------7--------7--------7----------|
E|--------------------x-----x-----x-------------------------------------------|

  I took the goods... and ran
e|--7--7--7s------------------|--3--3-----3-----3--3L-3----|
B|--8--8--8s------------------|--3--3-----3-----3--3L-3----|
G|--9--9--9s------------------|--0--0-----0-----0--0L-0----|
D|--9--9--9s------------------|--0--0-----0-----0--0L-0----|
A|--7--7--7s------------------|--2--2-----2-----2--2L-2----|
E|----------------------------|--3--3-----3-----3--3L-3----|


[Verse 3]

e|--3--3--x--3L----3--x-------|--7--7--x--7L----7--x-------|
B|--3--3--x--3L----3--x-------|--8--8--x--8L----8--x-------|
G|--4--4--x--4L----4--x-------|--9--9--x--9L----9--x-------|
D|--5--5--x--5L----5--x-------|--9--9--x--9L----9--x-------|
A|--5--5--x--5L----5--x-------|--7--7--x--7L----7--x-------|
E|--3--3--x--3L----3--x-------|--------x-----------x-------|

                               Homeland security
e|--8--8--x--8L----8--x-------|--3--3--x--3L----3--x-------|
B|--8--8--x--8L----8--x-------|--3--3--x--3L----3--x-------|
G|--9--9--x--9L----9--x-------|--4--4--x--4L----4--x-------|
D|--10-10-x--10L---10-x-------|--5--5--x--5L----5--x-------|
A|--10-10-x--10L---10-x-------|--5--5--x--5L----5--x-------|
E|--8--8--x--8L----8--x-------|--3--3--x--3L----3--x-------|

  vs civil liberty             I'm studying in the shadows...
e|--3--3--x--3L----3--x-------|--7--7--x--7L----7--x-------|
B|--3--3--x--3L----3--x-------|--8--8--x--8L----8--x-------|
G|--4--4--x--4L----4--x-------|--9--9--x--9L----9--x-------|
D|--5--5--x--5L----5--x-------|--9--9--x--9L----9--x-------|
A|--5--5--x--5L----5--x-------|--7--7--x--7L----7--x-------|
E|--3--3--x--3L----3--x-------|--------x-----------x-------|

e|--8--8--x--8L----8--x-------|--3--3--x--3L----3--x-------|
B|--8--8--x--8L----8--x-------|--3--3--x--3L----3--x-------|
G|--9--9--x--9L----9--x-------|--4--4--x--4L----4--x-------|
D|--10-10-x--10L---10-x-------|--5--5--x--5L----5--x-------|
A|--10-10-x--10L---10-x-------|--5--5--x--5L----5--x-------|
E|--8--8--x--8L----8--x-------|--3--3--x--3L----3--x-------|

e|--3--3--x--3L----3--x-------|--7--7--x--7L----7--x-------|
B|--3--3--x--3L----3--x-------|--8--8--x--8L----8--x-------|
G|--4--4--x--4L----4--x-------|--9--9--x--9L----9--x-------|
D|--5--5--x--5L----5--x-------|--9--9--x--9L----9--x-------|
A|--5--5--x--5L----5--x-------|--7--7--x--7L----7--x-------|
E|--3--3--x--3L----3--x-------|--------x-----------x-------|

e|--8--8--x--8L----8--x-------|--3--3--3--3--3--3--3--3----|
B|--8--8--x--8L----8--x-------|--3--3--3--3--3--3--3--3----|
G|--9--9--x--9L----9--x-------|--0--0--0--0--0--0--0--0----|
D|--10-10-x--10L---10-x-------|--0--0--0--0--0--0--0--0----|
A|--10-10-x--10L---10-x-------|--2--2--2--2--2--2--2--2----|
E|--8--8--x--8L----8--x-------|--3--3--3--3--3--3--3--3----|


[Pre-chorus]

  The funeral march of all the victims of your power war
e|--3--3--x-----0--0--0-------|--0--0--x-----0--0--0-------|
B|--3--3--x-----1--1--1-------|--0--0--x-----1--1--1-------|
G|--0--0--x-----0--0--0-------|--0--0--x-----0--0--0-------|
D|--0--0--x-----2--2--2-------|--2--2--x-----2--2--2-------|
A|--2--2--x-----3--3--3-------|--2--2--x-----3--3--3-------|
E|--3--3--x-------------------|--0--0--x-------------------|

e|--3--3--x-----0--0--0-------|--0--0--x-----0--0--0-------|
B|--3--3--x-----1--1--1-------|--0--0--x-----1--1--1-------|
G|--0--0--x-----0--0--0-------|--0--0--x-----0--0--0-------|
D|--0--0--x-----2--2--2-------|--2--2--x-----2--2--2-------|
A|--2--2--x-----3--3--3-------|--2--2--x-----3--3--3-------|
E|--3--3--x-------------------|--0--0--x-------------------|

e|--3--3--x-----0--0--0-------|--0--0--x-----0--0--0-------|-------|
B|--3--3--x-----1--1--1-------|--0--0--x-----1--1--1-------|-------|
G|--0--0--x-----0--0--0-------|--0--0--x-----0--0--0-------|--7----|
D|--0--0--x-----2--2--2-------|--2--2--x-----2--2--2-------|--7----|
A|--2--2--x-----3--3--3-------|--2--2--x-----3--3--3-------|--5----|
E|--3--3--x-------------------|--0--0--x-------------------|-------|

e|----------------------------------------|-------|
B|--1--------1--------1--1--1--1--1--1----|-------|
G|--2--------2--------2--2--2--2--2--2----|--7----|
D|--2--------2--------2--2--2--2--2--2----|--7----|
A|----------------------------------------|--5----|
E|----------------------------------------|-------|

e|--5--5--5--4----------------------------|
B|--------------5--5--3--0-----0----------|
G|----------------------------------------|
D|----------------------------------------|
A|----------------------------------------|
E|----------------------------------------|

  Thanks bastards! You made me what I am...
e|--8--------8--------x-----x-----x-----8--------8--------8--------8----------|
B|--8--------8--------x-----x-----x-----8--------8--------8--------8----------|
G|--9--------9--------x-----x-----x-----9--------9--------9--------9----------|
D|--10-------10-------x-----x-----x-----10-------10-------10-------10---------|
A|--10-------10-------x-----x-----x-----10-------10-------10-------10---------|
E|--8--------8--------x-----x-----x-----8--------8--------8--------8----------|

e|--3--------3--------x-----x-----x-----3--------3--------3--------3----------|
B|--3--------3--------x-----x-----x-----3--------3--------3--------3----------|
G|--0--------0--------x-----x-----x-----0--------0--------0--------0----------|
D|--0--------0--------x-----x-----x-----0--------0--------0--------0----------|
A|--2--------2--------x-----x-----x-----2--------2--------2--------2----------|
E|--3--------3--------x-----x-----x-----3--------3--------3--------3----------|

e|--5--------5--------x-----x-----x-----5--------5--------5--------5----------|
B|--7--------7--------x-----x-----x-----7--------7--------7--------7----------|
G|--7--------7--------x-----x-----x-----7--------7--------7--------7----------|
D|--7--------7--------x-----x-----x-----7--------7--------7--------7----------|
A|--5--------5--------x-----x-----x-----5--------5--------5--------5----------|
E|--------------------x-----x-----x-------------------------------------------|

e|--7--------7--------x-----x-----x-----7--------7--------7--------7----------|
B|--8--------8--------x-----x-----x-----8--------8--------8--------8----------|
G|--9--------9--------x-----x-----x-----9--------9--------9--------9----------|
D|--9--------9--------x-----x-----x-----9--------9--------9--------9----------|
A|--7--------7--------x-----x-----x-----7--------7--------7--------7----------|
E|--------------------x-----x-----x-------------------------------------------|

e|--8--------8--------x-----x-----x-----8--------8--------8--------8----------|
B|--8--------8--------x-----x-----x-----8--------8--------8--------8----------|
G|--9--------9--------x-----x-----x-----9--------9--------9--------9----------|
D|--10-------10-------x-----x-----x-----10-------10-------10-------10---------|
A|--10-------10-------x-----x-----x-----10-------10-------10-------10---------|
E|--8--------8--------x-----x-----x-----8--------8--------8--------8----------|

e|--3--------3--------x-----x-----x-----3--------3--------3--------3----------|
B|--3--------3--------x-----x-----x-----3--------3--------3--------3----------|
G|--0--------0--------x-----x-----x-----0--------0--------0--------0----------|
D|--0--------0--------x-----x-----x-----0--------0--------0--------0----------|
A|--2--------2--------x-----x-----x-----2--------2--------2--------2----------|
E|--3--------3--------x-----x-----x-----3--------3--------3--------3----------|

e|--5--------5--------x-----x-----x-----5--------5--------5--------5----------|
B|--7--------7--------x-----x-----x-----7--------7--------7--------7----------|
G|--7--------7--------x-----x-----x-----7--------7--------7--------7----------|
D|--7--------7--------x-----x-----x-----7--------7--------7--------7----------|
A|--5--------5--------x-----x-----x-----5--------5--------5--------5----------|
E|--------------------x-----x-----x-------------------------------------------|

  I took the goods and ran
e|--7--------7--------x-----x-----x-----7--------7--------7--------7----------|
B|--8--------8--------x-----x-----x-----8--------8--------8--------8----------|
G|--9--------9--------x-----x-----x-----9--------9--------9--------9----------|
D|--9--------9--------x-----x-----x-----9--------9--------9--------9----------|
A|--7--------7--------x-----x-----x-----7--------7--------7--------7----------|
E|--------------------x-----x-----x-------------------------------------------|

  I took the goods and ran
e|--7--------7--------x-----x-----x-----7--------7--------7--------7----------|
B|--8--------8--------x-----x-----x-----8--------8--------8--------8----------|
G|--9--------9--------x-----x-----x-----9--------9--------9--------9----------|
D|--9--------9--------x-----x-----x-----9--------9--------9--------9----------|
A|--7--------7--------x-----x-----x-----7--------7--------7--------7----------|
E|--------------------x-----x-----x-------------------------------------------|

  I took the goods and ran
e|--7--------7--------x-----x-----x-----7--------7--------7--------7----------|
B|--8--------8--------x-----x-----x-----8--------8--------8--------8----------|
G|--9--------9--------x-----x-----x-----9--------9--------9--------9----------|
D|--9--------9--------x-----x-----x-----9--------9--------9--------9----------|
A|--7--------7--------x-----x-----x-----7--------7--------7--------7----------|
E|--------------------x-----x-----x-------------------------------------------|

  I took the goods....           and   ran.                       ^
e|--7>-7>-7>------------------|-------|--3----|---------||
B|--8>-8>-8>------------------|-------|--3----|---------||
G|--9>-9>-9>------------------|-------|--0----|---------||
D|--9>-9>-9>------------------|-------|--0----|---------||
A|--7>-7>-7>------------------|-------|--2----|---------||
E|----------------------------|-------|--3----|------------------||



************************************

| L - tied note
| x - dead note
| > - accentuated note
| M - palm mute
| ^ - brush down

************************************

            
            
Suggest correction
Creating personal tab
Creating personal tab
You can edit any tab online and save it as your Personal.

You can edit, replace or remove any tab part or add personal notes – all changes will be seen only by you.

Personal tabs can be accessed anytime from any device, even offline.
Learn more »
Give kudos to tab author, rate the tab!
1 2 3 4 5
comments
print report bad tab
guest
You may want to rate the tab now too:
select rating
Wanna post a correction for this tab? Suggest correction