Oops, an error
Loading. Please wait.

The Dreams Of The Morning tab

431 views 6 this week
no commentswrite comment
1 2 3 4 5
x 3
add to favorites
×
Save as Personal and add changes to this tab that will be seen only by you. Learn more ›
×
You can save this tab as Personal to edit and correct it or add notes. All changes will be seen only by you. Learn more »
launch autoscroll
font size
0
reset
how to read this tab
guitar tuner
edit
Autoscroll
slow
fast
+/-
esc
set tempo
stop
Tabs by THELOOT

Chord Key

   A  E  F# D  E7 B  C# D7

e|----0--2--2------------------------------------------------------------------|
B|-2--0--2--3--5---------------------------------------------------------------|
G|-2--1--2--2--4--4--6--7------------------------------------------------------|
D|-2--2--4--0--2--4--6--7------------------------------------------------------|
A|-0--2--4-----2--2--4--5------------------------------------------------------|
E|----0--2---------------------------------------------------------------------|

[Intro]
played on a mandolin and fast alternate picking

   A                                          E       F#             D

e|--------------------------------------------17--16--14-----14--16--17------|
B|---------14----14--17--14------------14-----------------17-----------------|
G|-14--16-----16------------16--14--16-----16--------------------------------|
D|---------------------------------------------------------------------------|
A|---------------------------------------------------------------------------|
E|---------------------------------------------------------------------------|

                  A      E      F#       E7

e|-17--16--17--14------------------------------------------------------------|
B|----------------17--14--------14----14-------------------------------------|
G|-----------------------14--16----16----16----------------------------------|
D|---------------------------------------------------------------------------|
A|---------------------------------------------------------------------------|
E|---------------------------------------------------------------------------|


e|---------------------------------------------------------------------------|
B|---------------------------------------------------------------------------|
G|--------2-------2------------------2-------4-4-4-4-6-4-2-2-----------------|
D|------0---2h4p2---4--2---2---2h4p2---4--2--2-2-2-2-2-2-2-0-------2---------|
A|-2--4------------------0---0-------------------------------2--4--0--0h2h4--|
E|---------------------------------------------------------------------------|


e|-----------------------------------------------------------------------------|
B|-----------------------------/5-5--------------------------------------------|
G|-2-2-2-2---------------------/6-6----4-4-4-4-4/6-4-2-------------------------|
D|-0-0-0-0--4p0------2-2-2-2-2-/7-7--2---------------0-------2-2-2-2-2-2-2-----|
A|--------------4p0--0-0-0-0-0-------0-----------------4--2--0-0-0-0-0-0-0-----|
E|-----------------------------------------------------------------------------|
                                                               PM--------------|

e|-----------------------------------------------------------------------------|
B|-----------------------------------------------------------------------------|
G|-/5-5-5---------------------/5-5-5-/5-5-5------------------------------------|
D|-/6-6-6-2-2-4-2-2-2-2-2-2-2-/6-6-6-/6-6-6------------------------------------|
A|-/7-7-7-0-0-0-0-0-0-0-0-0-0-/7-7-7-/7-7-7------------------------------------|
E|-----------------------------------------------------------------------------|
                  PM---------|


(Verse 1)
A
Forgive me master if I hear
                 E     F#
No rhyme in your glory ode
   D                  A       E
As it was sung in the days of yore
F#              E7
Now we sing our own
A
You see I got this dream
                                       E     F#
Of turning grey and having cleared off every plate
       D             A          E
And to never look to tomorrow's rogues
F#                   E7
To say they went too far today

D, A, E, A
D, A, E.....D7, C#, B


(Verse 2)
A
To long to waken every soul
                          E     F#
From the calm that quells their storm
         D                      A           E
From the peace that blinds them through the time
F#                            E7
When they should have gone to war
A
Mother crying we forlorn our dreams
                         E   F#
Father hold them through the reigns
        D                    A         E
Let the thieves not take her away from me
F#                E7
And turn her to a slave


(Chorus)
       D        A
Of the dreams
       E        A
Of the dreams
       D        A     E.....D7, C#, B
Of the dreams
A              D      A
The dreams are of the morning
       D         E
Let me nighttime on in
                      D
May the sirens turn-a shrugging
                 A        D     A
As we carry on-a laughing
      E          D                A
As we carry on-a laughing all the way
F#     E      D7
              laughing all the way
D7       C#      B    A.....D7, C#, B, A, E7?
laughing all the way


(Verse 3)
A
May there always be fish in your streams
          E       F#
And water in your wells
    D                  A     E
And those that peddled empty handed
F#                                 E7
We'll take the silver and run like hell!
A
May there always be rage in your heart
                E          F#
When the master brings the reins
   D                                   A   E
To detest the thieves of our daughters and sons
F#                 E7
And raise from the dead

(Chorus)
     D     A
Today,
     E     A
today,
     D     A
today
E...........D7, C#, B
Hey
A         D       A
The dreams of the morning
       D         E
Let me nighttime on in
                      D
May the devils come a crying
                A         D    A
Carry me away a laughing
      E                    D7    C#      B
As we all go a laughing to story telling breaks
A    F#    E   D7    C#      B
            To story telling breaks
A    F#    E   D7    C#      B
            To story telling breaks


(Ending)
A         D       A
The dreams of the morning
       D         E
Let me nighttime on in
                      D
May the devils come a crying
                A         D    A
Carry me away a laughing
      E                    D7    C#      B
As we all go a laughing to story telling breaks
A    F#    E   D7    C#      B
            To story telling breaks

A    F#    E   D7    C#      B

A

************************************

| x   Dead note
| g   Grace note
| (n) Ghost note
| h   Hammer-on
| p   Pull-off
| r   Release
| >   Accented note
| t   Tapping
| b   Bend
| br  Bend release
| pb  Pre-bend
| pbr Pre-bend release
| /   Slide up
| \   Slide down
| ~   Vibrato
| s   Slap
| P   Pop
| PM  Palm mute
| TR  Trill
| N   Tremolo

************************************

            
            
Suggest correction
Creating personal tab
Creating personal tab
You can edit any tab online and save it as your Personal.

You can edit, replace or remove any tab part or add personal notes – all changes will be seen only by you.

Personal tabs can be accessed anytime from any device, even offline.
Learn more »
Give kudos to tab author, rate the tab!
1 2 3 4 5
comments
print report bad tab
guest
You may want to rate the tab now too:
select rating
Wanna post a correction for this tab? Suggest correction