Oops, an error
Loading. Please wait.

The Reinvention Of The Printing Press tab

76 views 1 this week
no commentswrite comment
1 2 3 4 5
3 more votes to show rating
add to favorites
×
Save as Personal and add changes to this tab that will be seen only by you. Learn more ›
×
You can save this tab as Personal to edit and correct it or add notes. All changes will be seen only by you. Learn more »
launch autoscroll
font size
0
reset
how to read this tab
guitar tuner
edit
Autoscroll
slow
fast
+/-
esc
set tempo
stop
Author
Tabs by: THELOOT

[Intro]
    
                                 G                        
e|--------------------------------------------------------3-3-3-3-3-3--------|
B|--------------------------------------------------------3-3-3-3-3-3--------|
G|-7p5----------------------------------------------------4-4-4-4-4-4--------|
D|-----7p5------------------(3x)-5-5-5-5-5-5-5-5-5-5-5-5--5-5-5-5-5-5--x-x---|
A|---------8---6-8-6h8p6---------5-5-5-5-5-5-5-5-5-5-5-5--5-5-5-5-5-5--x-x---|
E|-----------3-----------3-------3-3-3-3-3-3-3-3-3-3-3-3--3-3-3-3-3-3--x-x---|
                                 PM--------------------|

                     Em             C
e|-3-3-3-3-3-3-------0-0-0-0-0-0-0-------------------------------------------|
B|-3-3-3-3-3-3-------0-0-0-0-0-0-0--5----------------------------------------|
G|-4-4-4-4-4-4-------0-0-0-0-0-0-0--5--x-x-----------------------------------|
D|-5-5-5-5-5-5--4-0--2-2-2-2-2-2-2--5--x-x--5-4-2-(repeat than---------------|
A|-5-5-5-5-5-5-------2-2-2-2-2-2-2--3--x-x--3-2-0---hold out C --------------|
E|-3-3-3-3-3-3-------0-0-0-0-0-0-0-------------------2nd time)---------------|
                                       PM--|

[Verse]


   G                        Em           C
e|-3-3-3-3-3-3-3-3-3-3-3-3--0-0-0-0-0-0--------------------------------------|
B|-0-0-0-0-0-0-0-0-0-0-0-0--0-0-0-0-0-0--1-1-1-1-1-1-------------------------|
G|-0-0-0-0-0-0-0-0-0-0-0-0--0-0-0-0-0-0--0-0-0-0-0-0-------------------------|
D|-0-0-0-0-0-0-0-0-0-0-0-0--2-2-2-2-2-2--2-2-2-2-2-2--(2x)-------------------|
A|-2-2-2-2-2-2-2-2-2-2-2-2--2-2-2-2-2-2--3-3-3-3-3-3-------------------------|
E|-3-3-3-3-3-3-3-3-3-3-3-3--0-0-0-0-0-0--------------------------------------|
   Machinery mill us...
   God's no longer read....

   G                        A            C
e|-3-3-3-3-3-3-3-3-3-3-3-3---------------------------------------------------|
B|-0-0-0-0-0-0-0-0-0-0-0-0--2-2-2-2-2-2--1-----------------------------------|
G|-0-0-0-0-0-0-0-0-0-0-0-0--2-2-2-2-2-2--0-----------------------------------|
D|-0-0-0-0-0-0-0-0-0-0-0-0--2-2-2-2-2-2--2-----------------------------------|
A|-2-2-2-2-2-2-2-2-2-2-2-2--0-0-0-0-0-0--3----------3-3-3-2-2-2-0------------|
E|-3-3-3-3-3-3-3-3-3-3-3-3---------------------------------------------------|
   If they'd stopped at the wheel..

   G                                   Em           C
e|-3-3-3-3-3-3-------3-3-3-3-3-3-------0-0-0-0-0-0---------------------------|
B|-3-3-3-3-3-3-------3-3-3-3-3-3-------0-0-0-0-0-0--5------------------------|
G|-4-4-4-4-4-4-------4-4-4-4-4-4-------0-0-0-0-0-0--5------------------------|
D|-5-5-5-5-5-5--x-x--5-5-5-5-5-5--x-x--2-2-2-2-2-2--5--x-x---------(2x)------|
A|-5-5-5-5-5-5--x-x--5-5-5-5-5-5--x-x--2-2-2-2-2-2--3--x-x--3-2-0------------|
E|-3-3-3-3-3-3--x-x--3-3-3-3-3-3--x-x--0-0-0-0-0-0---------------------------|
   Beyond middle ages...
   Too dark to see...

   G            A            C
e|---------------------------------------------------------------------------|
B|---------------------------------------------------------------------------|
G|--------------2-2-2-2-2-2--5-5-5-5-5-5-5-5-5-5-5-5-------------------------|
D|-5-5-5-5-5-5--2-2-2-2-2-2--5-5-5-5-5-5-5-5-5-5-5-5-------------------------|
A|-5-5-5-5-5-5--0-0-0-0-0-0--3-3-3-3-3-3-3-3-3-3-3-3-------------------------|
E|-3-3-3-3-3-3---------------------------------------------------------------|
   PM----------------------------------|
   Now that we know now....


[Chorus]

   E          D          C          G
e|----------------------------------3-3-3-3-3--------------------------------|
B|-9-9-9-9-9--7-7-7-7-7--5-5-5-5-5--3-3-3-3-3--------------------------------|
G|-9-9-9-9-9--7-7-7-7-7--5-5-5-5-5--4-4-4-4-4--------------------------------|
D|-9-9-9-9-9--7-7-7-7-7--5-5-5-5-5--5-5-5-5-5--(2x)--------------------------|
A|-7-7-7-7-7--5-5-5-5-5--3-3-3-3-3--5-5-5-5-5--------------------------------|
E|----------------------------------3-3-3-3-3--------------------------------|
   The book was the lash....
   But the tyranny ended....


   C          G          C          D          G          C          D          G
e|------------3-3-3-3-3------------------------3-3-3-3-3------------------------3-3-3-3-3-|
B|-5-5-5-5-5--3-3-3-3-3--5-5-5-5-5--7-7-7-7-7--3-3-3-3-3--5-5-5-5-5--7-7-7-7-7--3-3-3-3-3-|
G|-5-5-5-5-5--4-4-4-4-4--5-5-5-5-5--7-7-7-7-7--4-4-4-4-4--5-5-5-5-5--7-7-7-7-7--4-4-4-4-4-|
D|-5-5-5-5-5--5-5-5-5-5--5-5-5-5-5--7-7-7-7-7--5-5-5-5-5--5-5-5-5-5--7-7-7-7-7--5-5-5-5-5-|
A|-3-3-3-3-3--5-5-5-5-5--3-3-3-3-3--5-5-5-5-5--5-5-5-5-5--3-3-3-3-3--5-5-5-5-5--5-5-5-5-5-|
E|------------3-3-3-3-3------------------------3-3-3-3-3------------------------3-3-3-3-3-|
   But don't put it in park..                  Need a match....


   C          G          D          G          C          G          D 
e|------------3-3-3-3-3-------------3-3-3-3-3-------------3-3-3-3-3-----------------------|
B|-5-5-5-5-5--3-3-3-3-3--7-7-7-7-7--3-3-3-3-3--5-5-5-5-5--3-3-3-3-3--7-7-7-7-7-7-7-7-7-7--|
G|-5-5-5-5-5--4-4-4-4-4--7-7-7-7-7--4-4-4-4-4--5-5-5-5-5--4-4-4-4-4--7-7-7-7-7-7-7-7-7-7--|
D|-5-5-5-5-5--5-5-5-5-5--7-7-7-7-7--5-5-5-5-5--5-5-5-5-5--5-5-5-5-5--7-7-7-7-7-7-7-7-7-7--|
A|-3-3-3-3-3--5-5-5-5-5--5-5-5-5-5--5-5-5-5-5--3-3-3-3-3--5-5-5-5-5--5-5-5-5-5-5-5-5-5-5--|
E|------------3-3-3-3-3-------------3-3-3-3-3-------------3-3-3-3-3-----------------------|
   

   C          G          D          G          A#         F          G
e|------------3-3-3-3-3-------------3-3-3-3-3-------------1-1-1-1-1--3--------------------|
B|-5-5-5-5-5--3-3-3-3-3--7-7-7-7-7--3-3-3-3-3--3-3-3-3-3--1-1-1-1-1--3--------------------|
G|-5-5-5-5-5--4-4-4-4-4--7-7-7-7-7--4-4-4-4-4--3-3-3-3-3--2-2-2-2-2--4--------------------|
D|-5-5-5-5-5--5-5-5-5-5--7-7-7-7-7--5-5-5-5-5--3-3-3-3-3--3-3-3-3-3--5--(INRO RIFF next)--|
A|-3-3-3-3-3--5-5-5-5-5--5-5-5-5-5--5-5-5-5-5--1-1-1-1-1--3-3-3-3-3--5--------------------|
E|------------3-3-3-3-3-------------3-3-3-3-3-------------1-1-1-1-1--3--------------------|



************************************

| x   Dead note
| g   Grace note
| (n) Ghost note
| h   Hammer-on
| p   Pull-off
| r   Release
| >   Accented note
| t   Tapping
| b   Bend
| br  Bend release
| pb  Pre-bend
| pbr Pre-bend release
| /   Slide up
| \   Slide down
| ~   Vibrato
| s   Slap
| P   Pop
| PM  Palm mute
| TR  Trill
| N   Tremolo

************************************
Suggest correction
Creating personal tab
Creating personal tab
You can edit any tab online and save it as your Personal.

You can edit, replace or remove any tab part or add personal notes – all changes will be seen only by you.

Personal tabs can be accessed anytime from any device, even offline.
Learn more »
Give kudos to tab author, rate the tab!
1 2 3 4 5
comments
print report bad tab
guest
You may want to rate the tab now too:
select rating
Wanna post a correction for this tab? Suggest correction