Oops, an error
Loading. Please wait.

Weapons chords

535 views 18 this week
2 commentsread comments
1 2 3 4 5
2 more votes to show rating
add to favorites
×
Save as Personal and add changes to this tab that will be seen only by you. Learn more ›
×
You can save this tab as Personal to edit and correct it or add notes. All changes will be seen only by you. Learn more »
launch autoscroll
font size
0
reset
transpose
0
reset
display chords
guitar tuner
edit
Autoscroll
slow
fast
+/-
esc
set tempo
stop
Author
Difficulty
About this tab version
There are no others for this song on here. Was this info helpful? Yes No
Strumming
There is no strumming pattern for this song yet. and get +5 IQ
Weapons

This is far from perfect, missing some parts and I'm sure some of the chords are wrong,
but it's close enough to sound fine with some improvising. Help me out!

Rest in Power Erik

[Intro Part 1]   
                   
   1           2               3               4               1
e|-------0-----0---0---0---0---0---0---0---0---0---0---0---0---0---0---|
B|-0--3----------0---0---0---0---0---0---0---0---0---0---0---0---0---0-|
G|---------------------------------------------------------------------|
D|---------------------------------------------------------------------|
A|---------------------------------------------------------------------|
E|-------0--0----------------------------------------------------------|
               
e|-0---0---0h2p0---0--3p2p0--0---0---0h2p0---0-|
B|---0---0-------3-------------0---0-------3---|
G|---------------------------------------------|
D|---------0-------------------------0---------|
A|--------------------0----------------------0-|
E|-0-------------------------0-----------------|

e|-0---0---3p2p0----0-0---0---0h2p0---0-|
B|---0---0------0-------0---0-------3---|
G|--------------------------------------|
D|----------------------------0---------|
A|---------0--------------------------0-|
E|-0------------------0-----------------|

e|-0---0---3p2p0---0--0--0--0---0---0--------------|
B|---0---0-------3----0--1--0-----0---0--0h1p0-----|
G|--------------------0--2--0------------------2p0-|
D|---------0----------2--2--2----------------------|
A|-3------------------2--0--2-2-3------------------|
E|--------------------0-----0----------------------|

e|-0---0---0h2p0---0--3p2p0--0---0---0h2p0---0-|
B|---0---0-------3-------------0---0-------3---|
G|---------------------------------------------|
D|---------0-------------------------0---------|
A|--------------------0----------------------0-|
E|-0-------------------------0-----------------|

e|-0---0---0h2p0---0--3p2p0--0---0---0h2p0---0-|
B|---0---0-------3-------------0---0-------3---|
G|---------------------------------------------|
D|---------0-------------------------0---------|
A|--------------------0----------------------0-|
E|-0-------------------------0-----------------|

e|-0---0----------------------0---0----------------------|
B|---0---0--3p1p0-----0-1-0-----0---0--0p1-0-------0-3~~-|
G|----------------2--------------------------2---2-------|
D|------------------2--------------------------0---------|
A|-3----------------0-----0-2-3--------------------------|
E|-------------------------------------------------------|

[Intro Part 2]
                 v v v ^ v                      ^ ^ 
e|-0-----------------------------0--------------3-3--|
B|---3-0---------1-1-1-1-1---0-3---3-0-------0--0-0--|
G|-------2-4p2-0-0-0-0-0-0-------------2-4p2-0--0-0--|
D|-------0-------2-2-2-2-2-------------0--------0-0--|
A|-------------3-3-3-3-3-3----------------------2-2--|
E|-0-----------------------------0-----------3--3-3--|

                    v v v ^ v                      ^ ^ ^ v ^ v ^
e|----0-----------------------------0--------------3-3-3-x-x-x-x-|
B|0-3---3-0---------1-1-1-1-1---0-3---3-0-------0--0-0-0-x-x-x-x-|
G|----------2-4p2-0-0-0-0-0-0-------------2-4p2-0--0-0-0-x-x-x-x-|
D|----------0-------2-2-2-2-2-------------0--------0-0-0-x-x-x-x-|
A|----------------3-3-3-3-3-3----------------------2-2-2-x-x-x-x-|
E|----0-----------------------------0-----------3--3-3-3-x-x-x-x-|

   vv^v vv^v         vv^v 
e|-0000-3333--------------|
B|-1111-0000-3-3-3-3------|
G|-0000-0000-2-4-2-0-2222-|
D|-2222-0000-0-0-0-0-2222-|
A|-3333-2222---------0000-|
E|------3333--------------|

   vv^v vv^v         v
e|-0000-3333-----------|
B|-1111-0000-3-3-3-3---|
G|-0000-0000-2-4-2-0-2-|
D|-2222-0000-0-0-0-0-2-|
A|-3333-2222---------0-|
E|------3333-----------|

[Intro Part 3]

e|-----0-----------------------------------------------3-x3-3-x3-xxxx-3-x3-xxxx-3-x3-|
B|-0-3---3-0-------------------------------------------0-x0-0-x0-xxxx-0-x0-xxxx-0-x0-|
G|-----------2-0-2-4-2-0-------0-2-0-------0---0-2-0---0-x0-0-x0-xxxx-0-x0-xxxx-0-x0-|
D|-----------0-----------4-2-4-------4-2-4---4---0---4-0-x0-0-x0-xxxx-0-x0-xxxx-0-x0-|
A|-----------------------0-----3-----0-----3-----------2-x2-2-x2-xxxx-2-x2-xxxx-2-x2-|
E|-----0-----------0-----------------------------------3-x3-3-x3-xxxx-3-x3-xxxx-3-x3-|

[Verse 1]

          Em           G
there’s a hole in the wall,
           D             Am
there’s a light down the hall
           C           G G
there’s a pest in the system,
          D              Am
so we’ll surely see it stall
           Em           G
there’s a knife in my pouch,
       D           Am
and a hammer in my belt
          C           G G
there’s a pot on the fire,
        C               D
so the joy’s yet to be felt
          Em               G
there’s a home, there’s a well,
           D             Am
there’s a ringing of the bell
      C                      G
so tonight we’ll feast on treasures
       C               D 
that they could never sell

e|-------------------------------------|
B|-3333--1-0------3333--3---33--3---33-|
G|-2222------2-0--2222--0h2-22--0h2-22-|
D|-0000-----------0000--0---00--0---00-|
A|-------------------------------------|
E|-------------------------------------|

e|-------------------------|
B|-3333--1-0------33333333-|
G|-2222------2-0--22222222-|
D|-0000-----------00000000-|
A|-------------------------|
E|-------------------------|

         Em             G
spirits sing, spirits fly,
             D               Am
through the window, see the sky
           C                   G
where the moon calls not for slumber,
      C                 D
but mischief, joy and might
       Em                D       C
so our weapons seem not much to show
               Em
but they don’t kill,
           D         G
they only help us grow
               C G D Am C G D
no they won’t kill

   vv^v vv^v         vv^v 
e|-0000-3333--------------|
B|-1111-0000-3-3-3-3-3333-|
G|-0000-0000-2-4-2-0-2222-|
D|-2222-0000-0-0-0-0-2222-|
A|-3333-2222---------0000-|
E|------3333--------------|

   vv^v vv^v         
e|-0000-3333-2222-0000-0000--------------------xxxx-|
B|-1111-0000-3333-1111-1111--------------------xxxx-|
G|-0000-0000-2222-2222-2222-------0--------0---xxxx-|
D|-2222-0000-0000-2222-2222-----2---2----4---4-xxxx-|
A|-3333-2222------0000-0000--/3-------/5-------xxxx-|
E|------3333-----------------------------------xxxx-|

[Chorus]

G                D
 we’ve got our weapons,
    Am            D
we brew a mighty ale
     Am               C   
the dead were dancing on their graves
    G                D
as drums and fiddles wail
G               D
 we've got our weapons,
    Am                 D
we bring them to the stones
      Am         C
the rituals were beyond words
       G          D         G   D
of the wedding of earth and soul

???

[Verse 2]

           Em           G
there’s a knock at the door,
         D              Am
well I wonder who it’s for
            C             G
you gotcha walking stick ready,
        C                   D
there still are different shores
        Em           G
with a mind in our heads,
       D            Am
and a heart in our chests
          C           G
with the world at our boot-tips
     C              D
our hands hold the rest
      Em
I've seen the towers
            D      C
they build on and up
             Em            D      G
I've got the mirth already in my cup
               Em
I've felt the winds
             D      C
they try to bottle up and sell
               Em
I've walked an earth
                 D     G
that they could never kill
no we won’t kill

C G D Am (x2) D C Am D (x2)

????

[Verse 3]

          Em              G
there’s a hood around my shoulders,
       D           Am
and a banjo in my hands
        C               G
as the notes rise like smoke rings,
    C                   D
so with these shall we dance
             Em
this is the flicker
                G
through the window,
         D                 Am
food is warm in here, it beckons
               C               G
while outside bites the winter air,
   C                    D       D
inside you’ll find our weapons, weapons, weapons...

[Chorus]

G                D
 we’ve got our weapons,
    Am            C
we brew a mighty ale
     G                 D
the dead were dancing on their graves
    Am                D
as drums and fiddles wail
G               D
 we've got our weapons,
    Am                 C
we bring them to the stones
      Em          G
the rituals were beyond words
        Am        D           G   D
of the wedding of earth and soul

????

[Outro]
x however many times

       Em                D       C
so our weapons seem not much to show
               Em
but they don’t kill,
           D         G
they only help us grow

End on G.

            
            
Suggest correction
Creating personal tab
Creating personal tab
You can edit any tab online and save it as your Personal.

You can edit, replace or remove any tab part or add personal notes – all changes will be seen only by you.

Personal tabs can be accessed anytime from any device, even offline.
Learn more »
Give kudos to tab author, rate the tab!
1 2 3 4 5
comments
print report bad tab
2 comments total.
+1 reply
lissachica 10 May 10, 2017 11:24 AM

Thank you

guest
You may want to rate the tab now too:
select rating
Wanna post a correction for this tab? Suggest correction