Oops, an error
Loading. Please wait.

Zombie Tab

version 2
version 2

Whole song

2,343 views 1 this week
1 commentread comment
1 2 3 4 5
3 more votes to show rating
add to favorites
launch autoscroll
font size
0
reset
how to read this tab
guitar tuner
Autoscroll
slow
fast
+/-
esc
set tempo
stop
Help us to improve Ultimate-Guitar.com Take our survey!
×
Author
Difficulty
novice
INTRO  guitar 1

-6----6-----4---2-4---6----6----4---24---6---6---4---2-------------------|
---4----4----4----------4----4----4-------4---4---4---4--4-6-7-4-6-7-----|
---------------------------------------------------------------------6---|
-------------------------------------------------------------------------|  X2
-------------------------------------------------------------------------|
-------------------------------------------------------------------------|


Intro Guitar 2             Bridge
----------------------------------6-7---4-6---2-4--------------------|
--------------------------------------4-----4-----4-6-7-6-2-2-2-2-2--|
-------------------------------------------------------------------3-|
--3----4-------------------------------------------------------------|
--1----2---4---3-----------------------------------------------------|
-----------2---1-----------------------------------------------------|


Pre Chorus Guitar 2       Pre Chorus G1         Chrous, L. Chrous  G2
--------------------------------2--2--2------------------------------|
---------------------------4-----2--2--2-----------------------------|
-----------------------------3------------X2-------------------------|
--3--4-------------------------------------------3---4---------------|
--1--2---4--3------------------------------------1---2---4---3-------|
---------2--1--------------------------------------------2---1-------|


Later Chorus G1

-6----6-----4---2-4---6----6----4---24---6---6---4---2-------------------|
---4----4----4----------4----4----4-------4---4---4---4--4-6-7-4-6-7-----|
---------------------------------------------------------------------6---|
-----------------------------------------------------------------------3-|
-------------------------------------------------------------------------|
-------------------------------------------------------------------------|


Solo

-6-7-7-4-6---X3---/9----9-11-11-11-11-9-9-9---X4--------------------|
--------------------------------------------------------------------|
--------------------------------------------------------------------|
--------------------------------------------------------------------|
--------------------------------------------------------------------|
--------------------------------------------------------------------|


---6-7---4-6---2-4--------------------------------------------------|
-------4-----4------4-6-7-6-2---------------------------------------|
--------------------------------------------------------------------|
--------------------------------------------------------------------|
--------------------------------------------------------------------|
--------------------------------------------------------------------|

Ending starting at 4:47

--6-7---4-6----2-4-------6-7----4-6----2-4--------------------------|
------4-----4-------X2-------4------4------4-6-7-6-2-2-2-2-2--------|
--------------------------------------------------------------------|
--------------------------------------------------------------------|
--------------------------------------------------------------------|
--------------------------------------------------------------------|


-6-7---4-6----6-7---4-6----6-7---4-6---2-4--------------------------|
-----4------------4------------4-----4-----4-6-2-2-2--------X5------|
--------------------------------------------------------------------|
--------------------------------------------------------------------|
--------------------------------------------------------------------|
--------------------------------------------------------------------|

SONG ORDER:

Intro          Later Chrous
Bridge         Bridge
Verse          Solo
Pre Chrous     Chrous
Chorus         Ending
Later Chorus
Bridge
Verse
Pre Chorus
Chorus
Suggest correction
Give kudos to tab author, rate the tab!
1 2 3 4 5
comments
print report bad tab
1 comment total.
0 reply
Yazawo 51 Dec 25, 2009 02:01 PM

dude whats the tuning?

guest
You may want to rate the tab now too:
select rating
Wanna post a correction for this tab? Suggest correction