Oops, an error
Loading. Please wait.

Anchor tab

version 1
version 1

Whole song

Interactive

9,357 views 1 this week
4 commentsread comments
1 2 3 4 5
1 last vote to show rating
add to favorites
×
Save as Personal and add changes to this tab that will be seen only by you. Learn more ›
×
You can save this tab as Personal to edit and correct it or add notes. All changes will be seen only by you. Learn more »
launch autoscroll
font size
0
reset
how to read this tab
guitar tuner
edit
Autoscroll
slow
fast
+/-
esc
set tempo
stop
----------------------------------------------------------------------------
                            Misery Signals
                                Anchor                  Drop C (C,G,C,F,A,D)
----------------------------------------------------------------------------




                                             |---------------|
                                             |---------------|
                                             |--5--7---------|
                                             |--------7------|
                                             |---------------|
                                             |---------------|


                      -------OR-------

|----------------------|--12-12-12-12-12-12-12-12-|----------|
|-------------13-------|--13-13-13-13-13-13-13-13-|----------|
|----------------14----|--14-14-14-14-14-14-14-14-|-9-10-----|
|-12----------------15-|--------------------------|-------10-|
|---12--12-13----------|--------------------------|----------|
|-----0----------------|--------------------------|----------|

                          1/2    1/2
|------------------------|-----------|------------|
|-----10--10------10--10-|-----------|------------|
|-----10--10------10--10-|-9-----9---|------------|
|-8---8---8---8---8---8--|---0-----0-|------------|
|-8-----------8----------|-7-0---7-0-|-0--0--0--0-|
|-8-----------8----------|---0-----0-|-0--0--0--0-|


|---------------------|---------------------|
|-11-11-11-11---------|-11-11-11-11---------|
|-14-14-14-14---------|-14-14-14-14---------|
|---------------------|---------------------|
|-------------0-0-0-0-|-------------0-0-0-0-|
|-------------0-0-0-0-|-------------0-0-0-0-|


|----------------------|--12-12-12-12-12-12-12-12-|----------|
|-------------13-------|--13-13-13-13-13-13-13-13-|----------|
|----------------14----|--14-14-14-14-14-14-14-14-|-9-10-----|
|-12----------------15-|--------------------------|-------10-|
|---12--12-13----------|--------------------------|----------|
|-----0----------------|--------------------------|----------|


                         1/2    1/2
|------------------------|-----------|------------|
|-----10--10------10--10-|-----------|------------|
|-----10--10------10--10-|-9-----9---|------------|
|-8---8---8---8---8---8--|---0-----0-|------------|
|-8-----------8----------|-7-0---7-0-|-0--0--0--0-|
|-8-----------8----------|---0-----0-|-0--0--0--0-|


|---------------------|---------------------|-------------------------|
|-11-11-11-11---------|-11-11-11-11---------|-11-11-11-11-11-11-11-11-|
|-14-14-14-14---------|-14-14-14-14---------|-14-14-14-14-14-12-12-12-|
|---------------------|---------------------|-------------------------|
|-------------0-0-0-0-|-------------0-0-0-0-|-------------------------|
|-------------0-0-0-0-|-------------0-0-0-0-|-------------------------|

|----------|
|----------|
|-10\9-9-9-|
|----------|
|-8\\7-7-7-|
|----------|


|----------------|------------|-------------|
|----------------|------------|-------------|
|-9---9---9---9--|------------|-12-12-12-12-|
|-10--10--10--10-|-8--8--8--8-|-------------|
|-8---8---8---8--|-8--8--8--8-|-10-10-10-10-|
|-8---8---8---8--|-8--8--8--8-|-------------|


|------------|----------------------|----------------------|
|------------|----------------------|----------------------|
|------------|-9--9--9--9-----9--9--|-9--9-----9--9--9--9--|
|-8--8--8--8-|-10-10-10-10----10-10-|-10-10----10-10-10-10-|
|-8--8--8--8-|-8--8--8--8-----8--8--|-8--8-----8--8--8--8--|
|-8--8--8--8-|-8--8--8--8-----8--8--|-8--8-----8--8--8--8--|


|----------------------|--12-12-12-12-12-12-12-12-|----------|
|-------------13-------|--13-13-13-13-13-13-13-13-|----------|
|----------------14----|--14-14-14-14-14-14-14-14-|-9-10-----|
|-12----------------15-|--------------------------|-------10-|
|---12--12-13----------|--------------------------|----------|
|-----0----------------|--------------------------|----------|


|------------------------|-----------|------------|
|-----10--10------10--10-|-----------|------------|
|-----10--10------10--10-|-9-----9---|------------|
|-8---8---8---8---8---8--|---0-----0-|------------|
|-8-----------8----------|-7-0---7-0-|-0--0--0--0-|
|-8-----------8----------|---0-----0-|-0--0--0--0-|


|--------------------------------------------------|
|-11-11-11-11-------------11//15-15-15-15-15-15-15-|
|-14-14-14-14-------------14//18-18-18-18-18-18-18-|
|--------------------------------------------------|
|--------------0-0-0-0-----------------------------|
|--------------0-0-0-0-----------------------------|

|---------|----------------|----------------|
|---------|----------------|----------------|
|---------|----------------|----------------|
|-0-0-0-0-|-0-0-0-0----0-0-|-0-0----0-0-0-0-|
|-0-0-0-0-|-0-0-0-0----0-0-|-0-0----0-0-0-0-|
|-0-0-0-0-|-0-0-0-0----0-0-|-0-0----0-0-0-0-|


|-----------------|
|------10------13-|
|-9-10----9-10----|
|-----------------|
|-----------------| x12
|-----------------|



THEN THE BREAKDOWN LISTEN TO THE SONG FOR TIMING AND RYTHEM


|-13-13-13---13---13-13-13-|-13-13-13-13-13-13----|
|-11-11-11---11---11-11-11-|-11-11-11-11-11-11----|
|-12-12-12---12---12-12-12-|-12-12-12-12-12-12----|
|--------------------------|----------------------|
|--------------------------|--------------------5-|
|--------------------------|----------------------|


|------------------------|-----12-12---12-12-12-12-|
|------------------------|-----x--x----x--x--x--x--|
|-10-10-10---10-10-10-10-|-10--9--9----9--9--9--9--|
|------------------------|-----10-10---10-10-10-10-|
|-8--8--8----8--8--8--8--|-8---8--8----8--8--8--8--|
|------------------------|-------------------------|


|---------------------------|-----------------------------|
|---------------------------|-----------------------------|
|-15-----15---15----15---15-|-15---15---15---14---14---14-|
|-15-----15---15----15---15-|-15---15---15---15---15---15-|
|-13-----13---13----13---13-|-13---13---13---13---13---13-|
|---------------------------|-----------------------------|


|----------------------|--12-12-12-12-12-12-12-12-|----------|
|-------------13-------|--13-13-13-13-13-13-13-13-|----------|
|----------------14----|--14-14-14-14-14-14-14-14-|-9-10-----|
|-12----------------15-|--------------------------|-------10-|
|---12--12-13----------|--------------------------|----------|
|-----0----------------|--------------------------|----------|

|------------------------|-----------|------------|
|-----10--10------10--10-|-----------|------------|
|-----10--10------10--10-|-9-----9---|------------|
|-8---8---8---8---8---8--|---0-----0-|------------|
|-8-----------8----------|-7-0---7-0-|-0--0--0--0-|
|-8-----------8----------|---0-----0-|-0--0--0--0-|


|---------------------|---------------------|
|-11-11-11-11---------|-11-11-11-11---------|
|-14-14-14-14---------|-14-14-14-14---------|
|---------------------|---------------------|
|-------------0-0-0-0-|-------------0-0-0-0-|
|-------------0-0-0-0-|-------------0-0-0-0-|


|----------------------|--12-12-12-12-12-12-12-12-|----------|
|-------------13-------|--13-13-13-13-13-13-13-13-|----------|
|----------------14----|--14-14-14-14-14-14-14-14-|-9-10-----|
|-12----------------15-|--------------------------|-------10-|
|---12--12-13----------|--------------------------|----------|
|-----0----------------|--------------------------|----------|

|------------------------|-----------|------------|
|-----10--10------10--10-|-----------|------------|
|-----10--10------10--10-|-9-----9---|------------|
|-8---8---8---8---8---8--|---0-----0-|------------|
|-8-----------8----------|-7-0---7-0-|-0--0--0--0-|
|-8-----------8----------|---0-----0-|-0--0--0--0-|

|--------------------------------------------------|
|-11-11-11-11-------------11//15-15-15-15-15-15-15-|
|-14-14-14-14-------------14//18-18-18-18-18-18-18-|
|--------------------------------------------------|
|--------------0-0-0-0-----------------------------|
|--------------0-0-0-0-----------------------------|



THEN ANOTHER BREAKDOWN LISTEN TO THE SONG FOR RYTHEM AND TIMING


|-----------------|          |-------------|-------------|
|------10------13-|          |---6---6---6-|---6---6---6-|
|-9-10----9-10----|          |-9---9---9---|-9---9---9---|
|-----------------|          |-------------|-------------|
|-----------------| x10      |-------------|-------------|
|-----------------|          |-------------|-------------|


|-----------------|--------------|-----------------|-------------|
|-----------------|--------------|-----------------|-------------|
|-10-10-10--9-9-9-|-7-7-7--9-9-9-|-10-10-10--9-9-9-|-5-5-5-5-5-5-|
|-----------------|--------------|-----------------|-------------|
|-8--8--8---7-7-7-|-5-5-5--7-7-7-|-8--8--8---7-7-7-|-3-3-3-3-3-3-|
|-----------------|--------------|-----------------|-------------|


|-------------------|-----------------|-------------------|-------------|
|---------10-10-----|--------10-10-10-|-------------------|-------------|
|---------10-10-----|--------10-10-10-|-12-12-12-10-10-10-|-5-5-7-7-9-9-|
|---------8--8------|--------8--8--8--|-------------------|-------------|
|--8-8-8--------8-8-|-8-8-8-----------|-10-10-10-8--8--8--|-3-3-5-5-7-7-|
|--8-8-8--------8-8-|-8-8-8-----------|-------------------|-------------|


|-----------------|-------------|---------------|---------------|
|-----------------|-------------|-------10-10---|-------10-10---|
|-10-10-10--9-9-9-|-5-5-5-5-5-5-|-------10-10---|-------10-10---|
|-----------------|-------------|-------8--8----|-------8--8----|
|-8--8--8---7-7-7-|-3-3-3-3-3-3-|-8-8-8-------8-|-8-8-8-------8-|
|-----------------|-------------|-8-8-8-------8-|-8-8-8-------8-|


|-13-13---13-13-13-13-|-13-13-13-13-------|------------------------|
|---------------------|-------------------|------------------------|
|-12-12---12-12-12-12-|-12-12-12-12----12-|-10-10-10---10-10-10-10-|
|---------------------|-------------------|------------------------|
|-10-10---10-10-10-10-|-10-10-10-10----10-|-8--8---8---8--8--8--8--|
|---------------------|-------------------|------------------------|

|-------------------------|
|-------------------------|
|-10--9--9----9--9--9--9--|
|-----10-10---10-10-10-10-|
|-8---8--8----8--8--8--8--|
|-------------------------|


|-----------------------|-------------------|
|-----------------------|-------------------|
|-15-----15-15-15-15-15-|-14-14-14-14-14-14-|
|-15-----15-15-15-15-15-|-15-15-15-15-15-15-|
|-13-----13-13-13-13-13-|-13-13-13-13-13-13-|
|-----------------------|-------------------|


|-13-13-13----13----13-|-13--13----13--13-13-|---------------------|
|----------------------|---------------------|---------------------|
|-12-12-12----12----12-|-12--12----12--12-12-|-10-10---10-10-10-10-|
|----------------------|---------------------|---------------------|
|-10-10-10----10----10-|-10--10----10--10-10-|-8--8----8--8--8--8--|
|----------------------|---------------------|---------------------|


|-12-12-12-12-----12-|
|--------------------|
|-9--9--9--9------9--|
|-10-10-10-10-----10-|
|-8--8--8--8------8--|
|--------------------|


|------------------------|------------------------|-13----13-13-13-13-13-|
|------------------------|------------------------|----------------------|
|-15-15-15---15-15-15-15-|-15-14-14---14-14-14-14-|-12----12-12-12-12-12-|
|-15-15-15---15-15-15-15-|-15-15-15---15-15-15-15-|----------------------|
|-13-13-13---13-13-13-13-|-13-13-13---13-13-13-13-|-10----10-10-10-10-10-|
|------------------------|------------------------|----------------------|



|-13-13-13-13---13---13-|
|-----------------------|
|-12-12-12-12---12---12-|
|-----------------------|
|-10-10-10-10---10---10-|
|-----------------------|


|-------------12---12-|-12-12---12--12-12-|--------------------|
|---------------------|-------------------|--------------------|
|-10-10-10----9----9--|-9--9----9---9--9--|-15-15--15-15-15-15-|
|-------------10---10-|-10-10---10--10-10-|-15-15--15-15-15-15-|
|-8--8--8-----8----8--|-8--8----8---8--8--|-13-13--13-13-13-13-|
|---------------------|-------------------|--------------------|

|-------------------|
|-------------------|
|-14-14-14-14---14--|
|-15-15-15-15---15--|
|-13-13-13-13---13--|
|-------------------|


|-13-13-13-13-13-13-13-13-|-13-13-13-13-13-13-13-13-|
|-------------------------|-------------------------|
|-12-12-12-12-12-12-12-12-|-12-12-12-12-12-12-12-12-|
|-------------------------|-------------------------|
|-10-10-10-10-10-10-10-10-|-10-10-10-10-10-10-10-10-|
|-------------------------|-------------------------|


|-------------------------|-18-18-18-18-17-17-17-17-|
|-------------------------|-------------------------|
|-10-10-10-10-10-10-10-10-|-15-15-15-15-14-14-14-14-|
|-------------------------|-------------------------|
|-8--8--8--8--8--8--8--8--|-------------------------|
|-------------------------|-------------------------|


|---------------------------------|----------------------------------|
|-15--15--15--15---17--17--17--17-|-18--18--18--18---20--20--20--20--|
|---------------------------------|----------------------------------|
|-12--12--12--12---14--14--14--14-|-15--15--15--15---17--17--17--17--|
|---------------------------------|----------------------------------|
|---------------------------------|----------------------------------|

|-13-13-13-13-13-13-13-13-|-13-13-13-13-13-13-13-13-|
|-------------------------|-------------------------|
|-12-12-12-12-12-12-12-12-|-12-12-12-12-12-12-12-12-|
|-------------------------|-------------------------|
|-10-10-10-10-10-10-10-10-|-10-10-10-10-10-10-10-10-|
|-------------------------|-------------------------|


|-------------------------|-18-18-18-18-17-17-17-17-|
|-------------------------|-------------------------|
|-10-10-10-10-10-10-10-10-|-15-15-15-15-14-14-14-14-|
|-------------------------|-------------------------|
|-8--8--8--8--8--8--8--8--|-------------------------|
|-------------------------|-------------------------|


|---------------------------------|----------------------------------|
|-15--15--15--15---17--17--17--17-|-18--18--18--18---20--20--20--20--|
|---------------------------------|----------------------------------|
|-12--12--12--12---14--14--14--14-|-15--15--15--15---17--17--17--17--|
|---------------------------------|----------------------------------|
|---------------------------------|----------------------------------|


|----------------------|--------------------|
|----------------------|--------------------|
|-15--15---15-15-15-15-|-14-14-14-14-----14-|
|-15--15---15-15-15-15-|-15-15-15-15-----15-|
|-13--13---13-13-13-13-|-13-13-13-13-----13-|
|----------------------|--------------------|





Suggest correction
Creating personal tab
Creating personal tab
You can edit any tab online and save it as your Personal.

You can edit, replace or remove any tab part or add personal notes – all changes will be seen only by you.

Personal tabs can be accessed anytime from any device, even offline.
Learn more »
Give kudos to tab author, rate the tab!
1 2 3 4 5
comments
print report bad tab
4 comments total. Showing first comments.
0 reply
Rageisablessing 10 Feb 02, 2008 06:36 PM

100% Good job

0 reply
Rageisablessing 10 Apr 30, 2008 12:28 PM

|------------------------|
|---------------13-------|
|------------------14----|
|-12------------------15-|
|---12--12-13/15----------|
|-----0------------------|

0 reply
Rageisablessing 10 Apr 30, 2008 12:30 PM

You get the idea. It's a slide to the 15th fret then the three note bit there. You can hear it plain as day and it makes it easier to play.

guest
You may want to rate the tab now too:
select rating
Wanna post a correction for this tab? Suggest correction