Oops, an error
Loading. Please wait.

Murder tab

version 1
version 1

Whole song

Interactive

1,628 views 1 this week
no commentswrite comment
1 2 3 4 5
1 last vote to show rating
add to favorites
×
Save as Personal and add changes to this tab that will be seen only by you. Learn more ›
×
You can save this tab as Personal to edit and correct it or add notes. All changes will be seen only by you. Learn more »
launch autoscroll
font size
0
reset
how to read this tab
guitar tuner
edit
Autoscroll
slow
fast
+/-
esc
set tempo
stop
----------------------------------------------------------------------------
                             Misery Signals                 Drop C
                                 Murder                   C-G-C-F-A-D
----------------------------------------------------------------------------




|------------------|----------------|-----------------|------------------|
|------------------|----------------|-----------------|------------------|
|-----7---7h5------|----------------|-----------------|-------------7----|
|---7---7-------10-|-------------12-|-1-1-1--3-3-3-12-|-12-13-13-13--8---|
|-5--------------8-|-------------10-|-1-1-1--3-3-3-10-|-10-10-10-10---10-|
|-------------0--8-|-8--8--8--8--10-|-1-1-1--3-3-3-10-|-10-10-10-10------|


|-----------------|---------------|----------------|-------------|--|
|-----------------|---------------|----------------|-------------|  |
|---------------2-|---------------|--------------2-|-------------|  |
|---------------3-|---------------|--------------3-|-------------|  |
|-0--1p0-1p0--0-1-|-0--1p0-1p0--0-|-0--1p0-1p0-0-1-|-0-1p0-1-0-0-|  |
|-0--1p0-1p0--0---|-0--1p0-1p0--0-|-0--1p0-1p0-0---|-0-1p0-1-0-0-|  |
                                                                    |
                                                                    |
                                                                   x2
|------------------|---------------|-----------------|----------|   |
|------------------|---------------|-6-6-6-6---6-6-6-|-6-6-6-6--|   |
|----------------2-|---------------|-7-7-7-7---7-7-7-|-7-7-7-7--|   |
|----------------3-|---------------|-7-7-7-7---7-7-7-|-7-7-7-7--|   |
|-0--1p0--1p0--0-1-|-0-1p0--1p0--0-|-5-5-5-5---5-5-5-|-5-5-5-5--|   |
|-0--1p0--1p0--0---|-0-1p0--1p0--0-|-----------------|----------|---|


|------------------|------------------|-----------|-----------|
|------------------|------------------|-----------|-----------|
|------------------|------------------|-9-9-9-9---|-9-9-9-9---|
|-8//10-10-10---10-|-10-10-10-10---10-|-----------|-----------|
|-8//10-10-10---10-|-10-10-10-10---10-|-7-7-7-7---|-7-7-7-7---|
|-8//10-10-10---10-|-10-10-10-10---10-|-----------|-----------|


|----------------------------------------------------13--12-----|
|----------------------------------------------13-10---------10-|
|------------9-12-10-------9-------------12-14------------------|
|-------9-10---------10------10----10-12------------------------|
|-10-12-----------------12------12------------------------------|
|---------------------------------------------------------------|


|------------|------------|------------------|-------------|---|
|------------|------------|------------------|-------------|---|
|-10-10--9-9-|-7-7--9---9-|-----7---7h5------|-------------|---|
|------------|------------|---7---7-------10-|----------12-|-0-|
|-8--8---7-7-|-5-5--7---7-|-5-------------8--|----------10-|-0-|
|------------|------------|-------------0-8--|-8-8-8-8--10-|-0-|


|-------------------|--------------------|-------------------|    
|-------------------|--------------------|-------------------|    
|-7--7-7-7-7-7------|-7--7-7-7-7-7-------|-7--7-7-7-7-7------|
|-5-----------------|-5------------------|-5-----------------|
|-5--6-6-6-6-6--5-5-|-5--6-6-6-6-6--5--5-|-5--6-6-6-6-6--5-5-|
|-5-------------5-5-|-5-------------5--5-|-5-------------5-5-|

|---------------------|
|---------------------|
|-7--7-7-7-7-7--------|
|-5-------------------|
|-5--6-6-6-6-6--5--5--|
|-5-------------5--5--|


|-------------------|--------------------|-------------------|    
|-------------------|--------------------|-------------------|    
|-7--7-7-7-7-7------|-7--7-7-7-7-7-------|-7--7-7-7-7-7------|
|-5-----------------|-5------------------|-5-----------------|
|-5--6-6-6-6-6--5-5-|-5--6-6-6-6-6--5--5-|-5--6-6-6-6-6--5-5-|
|-5-------------5-5-|-5-------------5--5-|-5-------------5-5-|

|---------------------|------------|
|---------------------|------------|
|-7--7-7-7-7-7--------|------------|
|-5-------------------|------------|
|-5--6-6-6-6-6--5--5--|-5---5---5--|
|-5-------------5--5--|-5---5---5--|



|------------------|-----------|-------------------|
|-6-6-6-6----6-6-6-|---6-6-6-6-|-------------------|
|-7-7-7-7----7-7-7-|---7-7-7-7-|-------------------|
|-7-7-7-7----7-7-7-|---7-7-7-7-|-8//10--10-10---10-|
|-5-5-5-5----5-5-5-|---5-5-5-5-|-8//10--10-10---10-|
|------------------|-----------|-8//10--10-10---10-|

|------------------|-----------|-----------|
|------------------|-----------|-----------|
|------------------|-9-9-9-9---|-9-9-9-9---|
|-10-10-10-10---10-|-----------|-----------|
|-10-10-10-10---10-|-7-7-7-7---|-7-7-7-7---|
|-10-10-10-10---10-|-----------|-----------|



|----------------------------------------------------13--12-----|
|----------------------------------------------13-10---------10-|
|------------9-12-10-------9-------------12-14------------------|
|-------9-10---------10------10----10-12------------------------|
|-10-12-----------------12------12------------------------------|
|---------------------------------------------------------------|


|------------|------------|---------|----------|
|------------|------------|---------|----------|
|-10-10--9-9-|-7-7--9---9-|-9-9-9-9-|-9-9-9-9--|
|------------|------------|---------|----------|
|-8--8---7-7-|-5-5--7---7-|-7-7-7-7-|-7-7-7-7--|
|------------|------------|---------|----------|

|----------------------------------------------------13--12-----|
|----------------------------------------------13-10---------10-|
|------------9-12-10-------9-------------12-14------------------|
|-------9-10---------10------10----10-12------------------------|
|-10-12-----------------12------12------------------------------|
|---------------------------------------------------------------|


|------------|------------|
|------------|------------|
|-10-10--9-9-|-7-7--9---9-|
|------------|------------|
|-8--8---7-7-|-5-5--7---7-|
|------------|------------|



|------------------|-------------|-----------------|--------------|
|------------------|-------------|-----------------|--------------|
|-7-7-7-------7----|-7-----7---7-|-7-7-7-------7---|-7-----7---7--|
|------------------|-------------|-----------------|--------------|
|-5-5-5--0-0--5--0-|-5-0-0-5-0-5-|-6-6-6-0-0-0-6-0-|-6-0-0-6-0-6--|
|--------0-0-----0-|---0-0---0---|-------0-0-0---0-|---0-0---0----|



|-------5-------|-------5-----5----|-------------|---------------|
|---------------|------------------|-------------|---------------|
|-------3-------|-------3-----3----|-------------|-7-7-7-----7---|
|---------------|------------------|-------------|---------------|
|-5-5-5---5-5-5-|-5-5-5----5-----0-|-1-0-1-1-0-1-|-5-5-5-0-0-5-0-|
|-3-3-3---3-3-3-|-3-3-3----3-----0-|-1-0-1-1-0-1-|-------0-0---0-|


|-------------|-----------------|-------------|-------5-------|
|-------------|-----------------|-------------|---------------|
|-7-----7---7-|-7-7-7-------7---|-7-----7---7-|-------3-------|
|-------------|-----------------|-------------|---------------|
|-5-0-0-5-0-5-|-6-6-6-0-0-0-6-0-|-6-0-0-6-0-6-|-5-5-5---5-5-5-|
|---0-0---0---|-------0-0-0---0-|---0-0---0---|-3-3-3---3-3-3-|


|-------5---5---|-------------|        THEN THE BREAKEDOWN
|---------------|-------------|             1:33-1:46
|-------3---3---|-------------|  LISTEN TO SONG TO FIGURE OUT THE RYTHEM
|---------------|-------------|
|-5-5-5---5---0-|-1-0-1-1-0-1-|
|-3-3-3---3---0-|-1-0-1-1-0-1-|



|----------------|------------|-------------|------------|
|----------------|------------|-------------|------------|
|-7-7-7------7-7-|-7------7-7-|-7-7-7---7-7-|-7-----7-7--|
|----------------|------------|-------------|------------|
|-5-5-5--0---5-5-|-5--0-0-5-5-|-6-6-6-0-6-6-|-6-0-0-6-6--|
|--------0-------|----0-0-----|-------0-----|---0-0------|


|---------------|-------------|----------------|--------|
|---------------|-------------|----------------|--------|
|-7-7-7-----7---|-7-----7---7-|-7-7-7-------10-|---10---|
|---------------|-------------|----------------|---10---|
|-5-5-5-0-0-5-0-|-5-0-0-5-0-5-|-6-6-6-0-0-0-8--|-5-8--0-|
|-------0-0---0-|---0-0---0---|-------0-0-0----|------0-|


|---------------------|---------------------------|
|---------------------|---------------------------|
|---------------------|---------------------------|
|---------------------|-----------------------3---|  x2
|-1-1-1-0-1---0-0-0-0-|-0-0-0-0-0-0-0-0---0-0-3---|
|-1-1-1-0-1---0-0-0-0-|-0-0-0-0-0-0-0-0---0-0-3-0-|


|-------------|--------------------|-----------------------|
|-------------|--------------------|-----------------------|
|-------------|--------------------|-----------------------|
|---------3---|--------------------|-------------------3---|
|-1-1-1-0-3---|-1-1-1-0-1--0-0-0-0-|-0-0-0-0-0-0-0-0---3---|
|-1-1-1-0-3-0-|-1-1-1-0-1--0-0-0-0-|-0-0-0-0-0-0-0-0---3-0-|


|---------------------|--------------------------|-------------|
|---------------------|--------------------------|-------------|
|---------------------|--------------------------|-------------|
|---------------------|----------------------3---|---------3---|
|-1-1-1-0-1---0-0-0-0-|-0-0-0-0-0-0-0-0--0-0-3---|-1-1-1-0-3---|
|-1-1-1-0-1---0-0-0-0-|-0-0-0-0-0-0-0-0--0-0-3-0-|-1-1-1-0-3-0-|

|-----------------|
|-----------------|
|-------5---5-----|
|-----7---7-------|
|-5-8---------8-7-|
|-----------------|



|-------------------------|-------------------------|
|-------------------------|-------------------------|
|-10-10-10-10-10-10-10-10-|-10-10-10-10-10-10-10-10-|
|-------------------------|-------------------------|
|-8--8--8--8--8--8--8--8--|-8--8--8--8--8--8--8--8--|
|-------------------------|-------------------------|

|---------------|-----------------|
|---------------|-----------------|
|-9-9-9-9-9-9-9-|-9-9-9-9-9-9-9-9-|
|---------------|-----------------|
|-7-7-7-7-7-7-7-|-7-7-7-7-7-7-7-7-|
|---------------|-----------------|


|-------------------------|-------------------------|
|-------------------------|-------------------------|
|-12-12-12-12-12-12-12-12-|-12-12-12-12-12-12-12-12-|
|-------------------------|-------------------------|
|-10-10-10-10-10-10-10-10-|-10-10-10-10-10-10-10-10-|
|-------------------------|-------------------------|

|----------------------|-----------------|
|----------------------|-----------------|
|-12-12\\--------------|-----------------|
|--------9-9-9-9-9-9-9-|-9-9-9-9-9-9-9-9-|
|-10-10\\9-9-9-9-9-9-9-|-9-9-9-9-9-9-9-9-|
|--------9-9-9-9-9-9-9-|-9-9-9-9-9-9-9-9-|


|-------------------------|-------------------------|
|-------------------------|-------------------------|
|-10-10-10-10-10-10-10-10-|-10-10-10-10-10-10-10-10-|
|-------------------------|-------------------------|
|-8--8--8--8--8--8--8--8--|-8--8--8--8--8--8--8--8--|
|-------------------------|-------------------------|

|-----------------------|
|--------4-----------4--|
|--------7-----------7--|
|-----------------------|
|-0-0-0-------0-0-0-----|
|-0-0-0-------0-0-0-----|


|--------------------|-------------------|--------------------|
|--------------------|-------------------|--------------------|
|--------------------|-------------------|-----------15-15-15-|
|--------------------|-------------------|--------------------|
|-6-6--6---6-6-6-6-6-|-6-6--6--6-6-6-6-6-|-5-5-5-5-5-13-13-13-|
|-6-6--6---6-6-6-6-6-|-6-6--6--6-6-6-6-6-|-5-5-5-5-5----------|

|---------------------------|
|---------------------------|
|-15\\12-12-12-12//14-14-14-|
|---------------------------|
|-13\\10-10-10-10//12-12-12-|
|---------------------------|


|-----------------|-----------------|-----------------|---------------|
|-----------------|-----------------|-----------------|---------------|
|-----------------|-----------------|-----------------|-----------7-6-|
|-----------------|-9p8p0-8p7p0-7p6-|-----------------|-9p8p0-8p7-----|X2
|-4-4-4-4-4-4-4-4-|-----------------|-4-4-4-4-4-4-4-4-|---------------|
|-4-4-4-4-4-4-4-4-|-----------------|-4-4-4-4-4-4-4-4-|---------------|


|------------------------|------------------------|--------------------|
|------------------------|------------------------|                    |
|--------8-7-------8-7-6-|-14\\13----13\\11--11---|                    |
|--8-7-6-----8-7-6-------|-------------------12---|                    |
|------------------------|-12\\11----11\\9----9---|                    |
|------------------------|---------0--------0-----|                    |  
                                                                       |
                                                                       |
|-------------------------------------------------|----------------|   |
|--------------------------------7----------------|----------------|   |
|--------------4h6-------------6-6-----11--11-----|-14\13---13\11--|   |
|-----------4----------------4---------12--12-----|----------------|   |
|---------5----------------5-----------9---9------|-12\11---11\9---|   |
|-0-0-0-0----------0-0-0-0---------0-0--------0-0-|-------0--------|   |
                                                                       |
                                                                       |
|-----------------------4-5--------------------------------------|     |
|---------7-----------7-------------------7----------------------|     |
|-----4h6-----------6-------------------6-6-------14\-13---13\11-|     |
|---4---------------------------------4--------------------------|     | 
|-5---------------------------------5-------------12\-11---11\9--|     |
|-----------0-0-0-0---------0-0-0-0---------0-0-0--------0-------|     |
                                                                       |
                                                                       |
                                                                       |
|-------------------------------------|                                |
|-------------------------------------|                                | 
|-6-----6----6-------14\13---13\11----|                          x2    | 
|-4-----7----4------------------------|                                |
|-4-----5----4-------12\11---11\9-----|                                |
|-4-----0----4-------------0-------0--|--------------------------------|
                                          2nd time end 
                                          on this. 

|------------------|----------------|     |----------|
|------------------|----------------|     |----------|
|-6----6---------6-|--6------6------|     |-6///9----|
|-4----7---------4-|--4------7----0-|  X2 |----------|
|-4----5---------4-|--4------5----0-|     |-4///7----|
|-4----0---------4-|--4------0----0-|     |----------|


|-------------------------------14-------14---------------------------|
|-------14-------------14-------------14----14-------14------------14-|
|-11-14-------11-13-14-------11----14-----14---11-14------11-13-14----|
|----------12-------------12----------------------------12------------|
|---------------------------------------------------------------------|
|---------------------------------------------------------------------|


|------14-------14------------------------------------14-----14-----|
|------------14------14-------14-------------14------------14----14-|
|---11----14-------14---11-14-------11-13-14-------11----14----14---|
|-12-----------------------------12-------------12------------------|
|-------------------------------------------------------------------|
|-------------------------------------------------------------------|



|-----------------------------------------------------|
|-14-14-14---14-14-14-14----------------5-------------|
|-14-14-14---14-14-14-14--------5-------5-------------|
|-12-12-12---12-12-12-12------7---5h7p5---------------|
|---------------------------8-------------------------|
|-----------------------------------------------------|





\ slide down
/ slide up
h hammer on
p pull off



            
            
Suggest correction
Creating personal tab
Creating personal tab
You can edit any tab online and save it as your Personal.

You can edit, replace or remove any tab part or add personal notes – all changes will be seen only by you.

Personal tabs can be accessed anytime from any device, even offline.
Learn more »
Give kudos to tab author, rate the tab!
1 2 3 4 5
comments
print report bad tab
guest
You may want to rate the tab now too:
select rating
Wanna post a correction for this tab? Suggest correction