Oops, an error
Loading. Please wait.

Something Was Always Missing But It Never Was You bass

928 views 3 this week
1 commentread comment
1 2 3 4 5
3 more votes to show rating
add to favorites
×
Save as Personal and add changes to this tab that will be seen only by you. Learn more ›
×
You can save this tab as Personal to edit and correct it or add notes. All changes will be seen only by you. Learn more »
launch autoscroll
font size
0
reset
guitar tuner
edit
Autoscroll
slow
fast
+/-
esc
set tempo
stop
Author
Okay, so this is my first tab on this site, after doing quite a few on BassMasta, but I 
they're done, so I started up an account on here. Hopefully I can do quite a few Misery 
songs, as there aren't too many bass tabs for em out there. Anyway...

Band: Misery Signals
Song: Something Was Always Missing... But It Was Never You
Bassist: Kyle "Old Man" Johnson
Tuning: Drop C

Tab:

"INTRO" You don't really have to play anything, but I just play this.
F:----------------------------------------------------------------|  X1
C:----------------------------------------------------------------|
G:5~--------------5~--------------5~--------------5~--------------|
C:----------------------------------------------------------------|


"INTRO PT.2"
F:--------------------|
C:--------------------|  X9, I THINK.
G:-5~5~---5~5~5~------|
C:-----0-0-----0-0----|

INTRO PT.2 CHANGE"
F:-------------------------------|
C:-------------------------------| X1
G:-5~5~5~----5~5~5~--------------|
C:-------0-0-------0-0--0-0--0-0-|

F:--------------------|
C:--------------------|  X1
G:-5~5~---5~5~5~------|
C:-----0-0-----0-0----|

F:-------------------------------|
C:-------------------------------| X1
G:-5~5~5~----5~5~5~--------------|
C:-------0-0-------0-0--0-0--0-0-|

"VERSE 1" "Resist"
F:--------------------|
C:--------------------|  X4
G:-5~5~---5~5~5~------|
C:-----0-0-----0-0----|

"CHORUS"
F:------------------------------|
C:------------------------------| X2 I'm doing this kinda simple, but all the
G:------------------------------| notes ARE there. Just figure out the pattern.
C:-10~8~-1-1-1-1--0-0-0-0--1-1~-|

"VERSE 2"
F:-------------------------------------------------------------|
C:-------------------------------------------------------------| X4  On the last time play
G:--4~-------4~-4~------------4~--------4~-4~-5-5-5 The 5-5-5--| part one more
C:-0--0-000-0--0--0-1-1-1----0--0-000000--0--0-----------------| time and let the last
                                                    note ring out

Then...
F:----------------|
C:----------------|
G:----------------|
C:-1-1-1-1-1-1-0~-|

And finally... "THE REALLY FUN BASS TAKEOVER PART"
F:-----------------------------------|        End this part on the high open C string.
C:-0-----0H3-0H5-----0-3H5-7 X12-----|
G:--0-3H5-------0-3H5----------------|
C:-----------------------------------|

"OUTRO"
F:--------------------|
C:--------------------| X10
G:-5~5~---5~5~5~------|
C:-----0-0-----0-0----|

And you're done! Fairly simple song, you just gotta get the hang of it, really. I think 
did a pretty good job on the tab. If you have any comments or whatever, email me at 
and if it's a correction, I'll get it fixed.

It's cool if you wanna use this tab on another site, just email me and give me a heads 
to let me know. Thanks.

            
            
Suggest correction
Creating personal tab
Creating personal tab
You can edit any tab online and save it as your Personal.

You can edit, replace or remove any tab part or add personal notes – all changes will be seen only by you.

Personal tabs can be accessed anytime from any device, even offline.
Learn more »
Give kudos to tab author, rate the tab!
1 2 3 4 5
comments
print report bad tab
1 comment total.
0 reply
dukeisdog 30 Jun 12, 2009 09:19 AM

Whoaa.

There is some writing in the tab part... Not really what I had hoped for. You should be able to understand the tab fairly well if you know the song, though.

guest
You may want to rate the tab now too:
select rating
Wanna post a correction for this tab? Suggest correction