Oops, an error
Loading. Please wait.

The Year Summer Ended In June bass

version 1
version 1

Whole song

Interactive

1,008 views 1 this week
no commentswrite comment
1 2 3 4 5
3 more votes to show rating
add to favorites
×
Save as Personal and add changes to this tab that will be seen only by you. Learn more ›
×
You can save this tab as Personal to edit and correct it or add notes. All changes will be seen only by you. Learn more »
launch autoscroll
font size
0
reset
guitar tuner
edit
Autoscroll
slow
fast
+/-
esc
set tempo
stop
Misery Signals
Year the summer ended in june
by Fender700

Tuning:  Four-String Drop C

note: I learned the song from watching the music video, and
obviously listening to it 100,000 times. This should be very
close.
Key:
. skip
* mute
~let note ring
/slide up
\slide down
^stocatto(punchy)
                       Intro
F|-----------------------------------------------------|
C|-----------------------------------------------------|
G|---5-----------5---6~----5-----------5---6~------5-5-|
C|-0---0-6~----0---0-----0---0-6~----0---0-------0-----| x1
   This time...It was our summer...
                        Pre-Verse
no one could take from us...
F|-------------------|
C|-------------------|
G|-------------------|
C|-330-330-33330-330-| x2
     *   *     *   *
                        Verse (riff 3)
        ..someimes that night seems so close...
F|-----------------------------------------------------|
C|-----------------------------------------------------|
G|--------87------------87-----------------------------|
C|-000-000--8\0--000-000--8\0--330-330-33330-330-3330--| x2
     *   *         *   *         *   *     *   *    *
Then...(riff 4)            (Riff 5)
note: the 10 are ones and zeros, not tens
F|----------------------|--------------------------| we'd be together..
C|----------------------|--------------------------|
G|----------------------|--------------------------|
C|-003366003366003366---|10-000-43010-000-43010-000| x8
   ..................
   (riff 6)                       (riff 7) ....gone this way before....
F|---------|----------------------------------------------------------------------|
C|---------|----------------------------------------------------------------------|
G|---------|----------------------------------------------------------------------|
C|-7~------|3-3333-3-3333-3-3333-3-3333-3-3333-3-3333-3-3333-3-3333-0-000000000000|
   (riff 8)
F|-----------|
C|-----------|
G|-----------|
C|-1--0043010|x6

Then riff 3 x2

             Breakdown(riff 9)
F|-------------------------------------------|
C|-------------------------------------------|
G|-------------------------------------------|
C|-8~----000-0000-000-0000-000-0000-000-0000-| ...but...
         ...      ...      ...      ... ....
       Then(riff 10)
F|----------------|
C|----------------|
G|----------------|
C|-00-00-00-00000-|   ...You're....with me....always with me...
   .. .. .. .....

   x1            (Riff 12)      x2                           x1
F|----|----------------------------------------------|----------------|
C|----|----------------------------------------------|----------------|
G|----|------------------------5-3-2-----------------|----------------|
C|-7~-|----8\0---3-3-333-3-33------333-333-333-333---|777-777-777-777-|
                                                                                         
                                                                      ^^^ ^^^ ^^^ ^^^
F|-----------------|
C|-----------------|
G|-----------------|
C|-0~---------00000|
              ^^^^^
     Bridge(very fast skipped)..I..Lost....Them....
F|---------------------------------------------------|
C|---------------------------------------------------|
G|---------------------------------------------------|
C|-00000-00000-00000-00000-00000--00000-00000-00000--|
   ..... ..... ..... ^^^^^ .....  ..... ..... ^^^^^
          (Brace yourself, this part is nuts) I lost them...as i lost u...
F|------------------------------------------------------------------|
C|------------------------------------------------------------------|
G|------------------------------------------------------------------|
C|-00000~-00000~-00000~-000000000000000~-00000~-00000~-0000000000---|
   ....   ....   ....   ..............   ....   ....   ..........

Waited... (10's are tens now)  ...my lost friends...     (bass fill)x1
F|----------------------------------------------|-----------------|
C|----------------------------------------------|-78----78---78---|
G|----------------------------33--33-33------532|---878---878--878|
C|-7-10-7-10-7-10-7-710-7-2--3---3--3--3-333----|-----------------|

tried to find those pitures Jordo....Of Us...that night..in Detroit..
F|----------------|        |---------------------------|
C|----------------|        |---------------------------|
G|----------------|        |---------------------------|
C|-77777777-3~----|        |-3-3-33-3--3-3-3-33-3--3/10|

(tens and twelves) with the pressure point...
F|----------------------------------------------|
C|-----910----109----910----109-----------------|
G|-1012---1012---1012---1012---7777888877-------|
C|---------------------------------------10-10\3| x4
                Outro(bass only)
F|------------------------------------------------------------|
C|------------------------------------------------------------|
G|------------------------------------------------------------|
C|-33-33--33-33--33-33--33-33--33-33-0-33-33--33-33--33-33--3~|
   ^^ ^^  ^^ ^^  ^^ ^^  ^^ ^^  ^^ ^^ * ^^ ^^  ^^ ^^  ^^ ^^
That's it. Sorry if its sloppy. its my 1st tab and it's a very long and tricky song to 
The bass isnt as pronounced as other bands. I think
i might've forgotten a few details, so
PLEASE let me know if corrections are needed!!!!
Enjoy if u like it!

            
            
Suggest correction
Creating personal tab
Creating personal tab
You can edit any tab online and save it as your Personal.

You can edit, replace or remove any tab part or add personal notes – all changes will be seen only by you.

Personal tabs can be accessed anytime from any device, even offline.
Learn more »
Give kudos to tab author, rate the tab!
1 2 3 4 5
comments
print report bad tab
guest
You may want to rate the tab now too:
select rating
Wanna post a correction for this tab? Suggest correction