Oops, an error
Loading. Please wait.

Astro Zombies Bass Tab

version 3
version 3

Whole song

Interactive

1,361 views 1 this week
1 commentread comment
1 2 3 4 5
1 last vote to show rating
add to favorites
launch autoscroll
font size
0
reset
guitar tuner
Autoscroll
slow
fast
+/-
esc
set tempo
stop
Help us to improve Ultimate-Guitar.com Take our survey!
×
Author
Difficulty
novice
-------------------------------------------------------------------------------
			     astro zombies - the misfits
-------------------------------------------------------------------------------

Tabbed By :jordan
e-mail: skateboarder6732@cs.com

Tuning:standard
intro
G|-----------------------------------------|
D|-----------------------------------------|
A|-3-3-2-2-2-------------------------------|
E|------------5-5-3-3-3--1-1-1-1--3-3-3-3--|
verse
G|-------------------------------------------------------------------------------------|
D|-------------------------------------------------------------------------------------|
A|-3-3-3-3-3-3-3-3---------------------------------------------------------------------|
E|-----------------1-1-1-1--3-3-3-3----------------------------------------------------|
chorus
G|-------------------------------------------------------------------|
D|-------------------------------------------------------------------|
A|-3-3-3-3-3-3-3-3------------------5-5-5-5-5-5-5-5------------------|
E|-----------------5-5-5-5-5-5-5-5------------------1-1-1-1-1-1-1-1--|


order:

intro x2
verse x2
chorus x4
verse x2
chorus x4
verse x4
intro x 2

notes:

on the second time on the last intro you play the 1 and 3 one the e string 8 times each

| /  slide up
| \  slide down
| h  hammer-on
| p  pull-off
| ~  vibrato
| +  harmonic
| x  Mute note
===============================================================================
Suggest correction
Give kudos to tab author, rate the tab!
1 2 3 4 5
comments
print report bad tab
1 comment total.
0 reply
silentscream3 10 Jan 18, 2007 10:39 PM

thanks alot i really needed to learn this song and you did a really good job on it Keep up the good work

guest
You may want to rate the tab now too:
select rating
Wanna post a correction for this tab? Suggest correction