Oops, an error
Loading. Please wait.

Astro Zombies Bass Tab

version 4
version 4

Whole song

Interactive

4,606 views 3 this week
1 commentread comment
1 2 3 4 5
accurate
x 4
add to favorites
launch autoscroll
font size
0
reset
guitar tuner
Tab Pro tools
  • play this tab
  • loop segment
  • change instrument
  • show fretboard
  • metronome
Autoscroll
slow
fast
+/-
esc
set tempo
stop
Contributor
Difficulty
novice
Astro Zombies (2:14)
The Misfits
Walk Among Us - March 1982

Tabbed - IbanezBassman
Written - Glenn Danzig
Bass - Jerry Only 


Intro: (0:00)

G|----------|----------|---------|---------| }
D|----------|----------|---------|---------| }
A|33--2-222-|00--------|---------|---------| } x2
E|----------|----3-333-|1-111111-|3-333333-| }


Fill: (0:09)

G|---------|---------|---------|---------| }
D|---------|---------|---------|---------| }
A|3-333333-|3-333333-|---------|---------| } x2
E|---------|---------|1-111111-|3-333333-| }


Verse: (0:18)

G|---------|---------|---------|---------| }
D|---------|---------|---------|---------| }
A|3-333-33-|3-333-33-|0-000-00-|0-000-00-| }
E|---------|---------|---------|---------| }
                                           } x2
G|---------|---------|---------|---------| }
D|---------|---------|---------|---------| }
A|---------|---------|---------|---------| }
E|0-000-00-|0-000-00-|1-111-11-|3-333-33-| }


Chorus: (0:36)

G|---------|---------|---------|---------| }
D|---------|---------|---------|---------| }
A|3-333-33-|3-333-33-|0-000-00-|0-000-00-| }
E|---------|---------|---------|---------| }
                                           } x2
G|---------|---------|---------|---------| }
D|---------|---------|---------|---------| }
A|5-555-55-|5-555-55-|---------|---------| }
E|---------|---------|3-333-33-|3-333-33-| }


Fill: (0:54)

G|----------|-----------|-----------|-----------| }
D|----------|-----------|-----------|-----------| }
A|3-333333--|-3-333333--|-----------|-----------| } x2
E|----------|-----------|-1-111111--|-3-333333--| }


Verse: (1:03)

G|---------|---------|---------|---------| }
D|---------|---------|---------|---------| }
A|3-333-33-|3-333-33-|0-000-00-|0-000-00-| }
E|---------|---------|---------|---------| }
                                           } x2
G|---------|---------|---------|---------| }
D|---------|---------|---------|---------| }
A|---------|---------|---------|---------| }
E|0-000-00-|0-000-00-|1-111-11-|3-333-33-| }


Chorus: (1:20)

G|---------|---------|---------|---------| }
D|---------|---------|---------|---------| }
A|3-333-33-|3-333-33-|0-000-00-|0-000-00-| }
E|---------|---------|---------|---------| }
                                           } x2
G|---------|---------|---------|---------| }
D|---------|---------|---------|---------| }
A|5-555-55-|5-555-55-|---------|---------| }
E|---------|---------|3-333-33-|3-333-33-| }

Fill: (1:38)

G|---------|---------|---------|---------| }
D|---------|---------|---------|---------| }
A|3-333333-|3-333333-|---------|---------| } x4
E|---------|---------|1-111111-|3-333333-| }


Outro: (1:56)

G|----------|----------|---------|---------|
D|----------|----------|---------|---------|
A|33--2-222-|00--------|---------|---------|
E|----------|----3-333-|1-111111-|3-333333-|

G|----------|----------|-------|-------|--|
D|----------|----------|-------|-------|--|
A|33--2-222-|00--------|-------|-------|3-|
E|----------|----3-333-|111111-|333333-|--|
comments
print report bad tab
1 comment total.
0 reply
scoobydoo182 wrote on December 16 2012, 05:11 am

great tab! all the right notes but, I feel it works better for the most part when the sequences are played all on the E string. I feel there is some slides in between notes, and can be easily translated over.

5 stars nonetheless.

I want to post or [tab]
guest
You may want to rate the tab now too:
select rating
Please do not post tabs as comments. Select "correction" instead!