Oops, an error
Loading. Please wait.

Astro Zombies Tab

version 6
version 6

Interactive

Video

427 views 1 this week
no commentswrite comment
1 2 3 4 5
please rate
add to favorites
launch autoscroll
font size
0
reset
how to read this tab
guitar tuner
Autoscroll
slow
fast
+/-
esc
set tempo
stop
Help us to improve Ultimate-Guitar.com Take our survey!
×
Contributor
Difficulty
novice
        Astro Zombies
 
 intro/outro:
  e|-------------------------------------|
  b|-------------------------------------|
  g|-------------------------------------| 2x
  d|-55-4-444----------------------------|
  a|-33-2-222-77-5-555-3-3-3333-5-5-5555-|
  E|----------55-3-333-1-1-1111-3-3-3333-|

 chores:
  e|--------------------|
  b|--------------------|
  g|--------------------| 2x
  d|-55555555-----------|
  a|-33333333-3333-5555-|
  E|----------1111-3333-|

 verse:
  e|------------------------------------------|
  b|------------------------------------------|
  g|------------------------------------------| 2x
  d|-55555555----------99999999-10101010------|
  a|-33333333-77777777-77777777-8-8-8-8--5555-|
  E|----------55555555-------------------3333-|

 pre-chores:
  e|-------------------------------------|
  b|-------------------------------------|
  g|-------------------------------------| 2x
  d|-55555555----------77777777----------|
  a|-33333333-77777777-55555555-55555555-|
  E|----------55555555----------33333333-|

 chores: 2x
 verse: 2x
 pre-chores: 2x
 chores: 4x
 intro/outro: 1x        
 outro(second part):
  e|------------------------------------------------------|----|
  b|------------------------------------------------------|----|
  g|------------------------------------------------------|----| 1x
  d|-55-4-444----------------------------------------5~~~~|-5/-|
  a|-33-2-222-77-5-555-3-3-3-3-3-3-3-3-5-5-5-5-5-5-5-3~~~~|-3/-|
  E|----------55-3-333-1-1-1-1-1-1-1-1-3-3-3-3-3-3-3------|----|
comments
We did not receive enough feedback on this tab! Please rate:
print report bad tab
1 2 3 4 5
I want to post or [tab]
guest
You may want to rate the tab now too:
select rating
Please do not post tabs as comments. Select "correction" instead!