Oops, an error
Loading. Please wait.

Beware Bass Tab

1,730 views 1 this week
1 commentread comment
1 2 3 4 5
please rate
add to favorites
launch autoscroll
font size
0
reset
guitar tuner
Autoscroll
slow
fast
+/-
esc
set tempo
stop
Help us to improve Ultimate-Guitar.com Take our survey!
×
=====MISFITS = Beware Album======

========we are 138===========
Intro
G|------------------------------------------------------|
D|------------------------------------------------------|
A|7-7-7-7-7-7--3--5--7-7-7-7-7-7---3--5-3-3-3-3-5-5-5-5-|
E|------------------------------------------------------|

Riff 1   (12)
G|-------------------|
D|-------------------|
A|777777777777--3--5-|
E|-------------------|

Riff 2
G|-------------------|
D|-------------------|
A|-33333333-55555555-|
E|-------------------|

Riff 3       (48)
G|------------------------------------------------------------------|
D|------------------------------------------------------------------|
A|777777777777777777777777777777777777777777777777—33333333-55555555|
E|------------------------------------------------------------------|

Riff 4    (48)
G|-------------------------------------------------|
D|-------------------------------------------------|
A|777777777777777777777777777777777777777777777777-|
E|-------------------------------------------------|

Riff 5
G|----------------------------------------------------------|
D|----------------------------------------------------------|
A|7-7-7-7-3-3-3-3-5-5-5-5-7-7-7-7-7-7-7-7-3-3-3-3-5-5-5-5-7~|
E|----------------------------------------------------------|


==============Bullet================
Part 1
:--------------------------------|
:-------------------33-----------|
:-555555555555555533—-5-5-5555---|
:--------------------------------|

Part 2
:--------------------------------------------------------|
:--------------------------------------------------------|
:5555555555555555333333333333333111133335555555555555555-|
:--------------------------------------------------------|

Part 3
:------------------------------------|
:-55555555--------55555555-----------|
:---------55555555--------55555555---|
:------------------------------------|
============HollyWood Babylon===================

Main Riff
|---------|
|---------|
|---------|
|-0-0-3-0-|

Interlude
|------------------------------------------------|
|------------------------------------------------|
|-0--0-0-0-0-1-1-1-1-0-0-0-0---------------------|
|----------------------------0-0-3-0-------------|

Chorus
|-----------------------------------------------------------------|
|-----------------------------------------------------------------|
|-----------------------------------------------------------------|
|-0-0-3-0-0-0-3-0-0-0-3-0-0-0-3-0-6-6-6-6-6-6-6-6-3-3-3-3-3-3-3-3-|

Bridge
|------------------------------------|
|------------------------------------|
|-------------------------1-1--------|
|-0-0-3-0-0-0-3-0-0-0-3-0------------|

===========Attitude=============

Intro
:---------------------------------------|
:---------------------------------------|
:-555555555555555555555555555555555-----|
:---------------------------------------|

Part 1
:------------------------------------|
:------------------------------------|
:-55555555--------55555555-----------|
:---------33333333--------33333333---|

Part 2
:--------------------------------------------------------------------|
:--------------------------------------------------------------------|
:--------------------------------------------------------------------|
:-2222222222222222333333333333333322222222222222223333333355555555---|


===========Horror Business=================

INTRO
G-----------|
D-----------|
A-----------|
E—6-5-------|

Main Riff
G---------------------------|
D---------------------------|
A---------------------------|
E-33-66-33-66-33-66-8888----|

Pre-Chorus
G--------------------------------|
D--------------------------------|
A--------------------------------|
E-6666666666-55555555-8888888888-|

Chorus
G------------------------------------|
D------------------------------------|
A-88888888---------------------------|
E---------88888888-66666666-88888888-|


=======Teenagers From Mars===========

Riff 1
G---------------------------|
D---------------------------|
A---------------------------|
E-1-1-3-3-4-4-4-4-4-4-4-4---|

Riff 2
G--------------------------------|
D----------6-6-6-6-6-6-6-6-------|
A--4-4-4-4-----------------------|
E--------------------------------|

Riff 3
G-------------------------|
D---------2-2-2-2-2-2-2-2-|
A-2-2-2-2-----------------|
E-------------------------|

Riff 4
G-------------------------|
D-------------------------|
A---------7-7-7-7-7-7-7-7-|
E-6-6-6-6-----------------|

RIFF 5                    End
G-------------------------|------------|
D-------------------------|------------|
A-------------------------|------------|
E-5-5-5-5-7-7-7-7-7-7-7-7-|-5---5-7~---|




===========Last Caress=============

INTRO
G------------------------|
D------------------------|
A-3------3--8--10--8---5-|
E---1--3-----------------|


VERSE Pt.1
G--------------------|
D--------------------|
A-3333333333333--8-10|
E--------------------|x4 then

VERSE Pt.2
G---------------------------------------------------|
D---------------------------------------------------|
A-88888888—---55555555---333333333333333------------|
E---------------------------------------------------|

CHORUS
G---------------------------------|
D---------------------------------|
A-88888888-55555555-3-3-3-7-7-7---|
E---------------------------------|

G----------------------------------|
D----------------------------------|
A-333333333333—8-8-8-10-10-10------|
E----------------------------------|


And there it is. Misfits Beware
Everything should be right on this
Suggest correction
Give kudos to tab author, rate the tab!
1 2 3 4 5
comments
print report bad tab
1 comment total.
0 reply
einar 166 wrote on July 28 2009, 03:36 pm

The notes are right on attitude but you can clearly hear it is played much higher, all on the D string

D-0-00-00-0-5-55-55-5- on the verse then

D-444444444444444445555555555555555-4444444444444444-5555555577777777 on the chorus

guest
You may want to rate the tab now too:
select rating
Please do not post tabs as comments. Select "correction" instead!