Oops, an error
Loading. Please wait.

Beware Tab

2,737 views 1 this week
2 commentsread comments
1 2 3 4 5
x 5
add to favorites
launch autoscroll
font size
0
reset
how to read this tab
guitar tuner
Autoscroll
slow
fast
+/-
esc
set tempo
stop
Help us to improve Ultimate-Guitar.com Take our survey!
×
Author
Misfits
Album: Beware

Tabbed By Donald Lawson
All Songs by: Glenn Danzig
Guitar: Doyle
Bass: Jerry
Drums Googy

Misfits Sound: 
Pedals- Metal Master, Metal Zone, RP50 #29
Strings- Dean Markley


If you have questions or comments IM me on AIM- Misfits3388 or send me an e-mail 
Aftermath_Guitarist@hotmail.com   


========We are 138===========
Standard Tuning
Intro

1|-----------------------|------------------|------------------------------|
2|-----------------------|------------------|------------------------------|
3|-1~----11111111---5-7--|-11111111---5--7--|-7--5--1-1-1-1-1-1-1-1--5--7--|
4|-2~----22222222---5-7--|-22222222---5--7--|-7--5--2-2-2-2-2-2-2-2--5--7--|
5|-2~----22222222---3-5--|-22222222---3--5--|-5--3--2-2-2-2-2-2-2-2--3--5--|
6|-----------------------|------------------|------------------------------|


Bridge

1|-------------------------------------|---------------------------------|
2|-------------------------------------|---------------------------------|
3|-1111111111111111-5555555--77777777--|-1111111111111111--5-5-5-5-7--1--|
4|-2222222222222222-5555555--77777777--|-2222222222222222--5-5-5-5-7--1--|
5|-2222222222222222-3333333--55555555--|-2222222222222222--3-3-3-3-5--2--|
6|-------------------------------------|---------------------------------|

Solo

1|-11121112111211121112111211121112-121212121212121212^1212121212121212|
2|---------------------------------------------------------------------|
3|---------------------------------------------------------------------|
4|---------------------------------------------------------------------|
5|---------------------------------------------------------------------|
6|---------------------------------------------------------------------|


Outro

1|------------------------------------------------------------------------|
2|------------------------------------------------------------------------|
3|-5-5-5-5--7-7-7-7--1-1-1-1-1-1-1-1---5-5-5-5--7-7-7-7--1-1-1-1-1-1-1-1--|
4|-5-5-5-5--7-7-7-7--2-2-2-2-2-2-2-2---5-5-5-5--7-7-7-7--2-2-2-2-2-2-2-2--|
5|-3-3-3-3--5-5-5-5--2-2-2-2-2-2-2-2---3-3-3-3--5-5-5-5--2-2-2-2-2-2-2-2--|
6|------------------------------------------------------------------------|





==============Bullet================
Eb Tuning

Chorus

1|-----------------------|
2|-----------------------|
3|-7777777777--5-5-------|
4|-7777777777--5-5---3---|
5|-5555555555--3-3---3---|
6|-------------------1---|

Interlude

1|-----------------------------------------------------------|
2|-----------------------------------------------------------|
3|-7777777777--5555555555--------------5-5-5-5-5--7-7-7-7-7--|
4|-7777777777--5555555555---8-8-8-8-8--5-5-5-5-5--7-7-7-7-7--|
5|-5555555555--3333333333---8-8-8-8-8--3-3-3-3-3--5-5-5-5-5--|
6|--------------------------6-6-6-6-6------------------------|


Bridge

1|-------------------|
2|-------------------|
3|-----------7-7-7-7-|
4|-5-5-5-5---7-7-7-7-|
5|-5-5-5-5---5-5-5-5-|
6|-3-3-3-3-----------|

Outro

1|----------------------|
2|----------------------|
3|-5-5-------77777777---|
4|-5-5--3-3--77777777---|
5|-3-3--3-3--55555555---|
6|------1-1-------------|





============HollyWood Babylon===================
Standard Tuning

Verse
1|----------------------------------------|
2|----------------------------------------|
3|-1-----1111111111-----------------------|
4|-2-----2222222222---777-888--2222222222-|
5|-2-----2222222222---777-888--2222222222-|
6|--------------------555-666--0000000000-|

Chorus
1|-----------------------------|
2|-----------------------------|
3|-----------------------------|
4|-7-7-7-7--5-5-5-5--2-2-2-2---|
5|-7-7-7-7--5-5-5-5--2-2-2-2---|
6|-5-5-5-5--3-3-3-3--0-0-0-0---|

Bridge
1|---------------------------------------------|---------------------------|
2|---------------------------------------------|---------------------------|
3|---------------------------------------------|---------------------------|
4|-2-2--5-5--2-2--5-5--2-2--5-5--2-2--5-5--2-2-|-2-2-5-5-2-2-5-5-2-2-5-5-8-|
5|-2-2--5-5--2-2--5-5--2-2--5-5--2-2--5-5--2-2-|-2-2-5-5-2-2-5-5-2-2-5-5-8-|
6|-0-0--3-3--0-0--3-3--0-0--3-3--0-0--3-3--0-0-|-0-0-3-3-0-0-3-3-0-0-3-3-6-|





===========Attitude=============
Standard Tuning

Intro               Verse
1|----------------|------------------------------------|
2|----------------|------------------------------------|
3|-77777777777777-|-7-7-7-7-7-7-7-7--------------------|
4|-77777777777777-|-7-7-7-7-7-7-7-7---5-5-5-5-5-5-5-5--|
5|-55555555555555-|-5-5-5-5-5-5-5-5---5-5-5-5-5-5-5-5--|
6|----------------|-------------------3-3-3-3-3-3-3-3--|
                     ^____________4X's______________^

Chorus
1|--------------------------------------------------------------|
2|--------------------------------------------------------------|
3|--------------------------------------------------------------|
4|-4444444444--5555555555--4444444444--5555555555--7777777777---|
5|-4444444444--5555555555--4444444444--5555555555--7777777777---|
6|-2222222222--3333333333--2222222222--3333333333--5555555555---|

Verse2
1|--------------------------|
2|--------------------------|
3|-7777777777---------------|
4|-7777777777--7777777777---|
5|-5555555555--7777777777---| 4X's
6|-------------5555555555---|

Solo
1|-10-10-10-10-10-10-10-10-10--10-10-10-10-10-10-10-10--|
2|-10-10-10-10-10-10-10-10-10--12-12-12-12-12-12-12-12--|
3|------------------------------------------------------|
4|------------------------------------------------------|
5|------------------------------------------------------|
6|------------------------------------------------------|




===========Horror Business=================
Tuning Eb
Intro:
1|----------------------|
2|----------------------|
3|----------------------|
4|----------------------|
5|-8-7------5-5-5-5-5-5-|
6|-6-5------3-3-6-6-3-3-|

Verse:
1|------------------------------|
2|------------------------------|
3|------------------------------|
4|------------------------------|
5|-5-5-5-5-5-5--8-8-8-8-7-7-6-6-|
6|-3-3-6-6-3-3--6-6-6-6-5-5-4-4-|

Chorus:
1|------------------------------------|
2|------------------------------------|
3|------------------------------------|
4|-10-10-10-10------------------------|
5|--8--8--8--8----10-10-10-10-8-8-8-8-|
6|-----------------8--8--8--8-6-6-6-6-|

Solo:
1|-13-------------------------------------------------|
2|----8-6-8--6-6-6-8-8-8-11-11-11-13-13-13------------|
3|-----------------------------------------12-14------|
4|----------------------------------------------------|
5|----------------------------------------------------|
6|----------------------------------------------------|

End
1|-----|
2|-----|
3|-----|
4|-10--|
5|--8--|
6|-----|


=======Teenagers From Mars===========
Tuning Standard
Riff A
1|--------------------------------------------------|
2|--------------------------------------------------|
3|--------------------------------------------------|
4|-5--5--5--6-6-6-6-3-------------------------------|
5|-5--5--5--6-6-6-6-3-------------------------------|
6|-3--3--3--4-4-4-4-1-------------------------------|

Riff B
1|----------------------|
2|----------------------|
3|-5-5-5-5--------------|
4|-5-5-5-5-5-5-5-5------|
5|-3-3-3-3-5-5-5-5------|
6|---------3-3-3-3------|

Chorus                               Riff C
1|-----------------------------------|-----------------------------------|
2|-----------------------------------|-----------------------------------|
3|-----------------9-9-9-9-9-9-9-9---|----------------9-9-9-9-9-9-9-9----|
4|-9-9-9-9-9-9-9-9-9-9-9-9-9-9-9-9---|8-8-8-8-8-8-8-8-9-9-9-9-9-9-9-9----|
5|-9-9-9-9-9-9-9-9-7-7-7-7-7-7-7-7---|8-8-8-8-8-8-8-8-7-7-7-7-7-7-7-7----|
6|-7-7-7-7-7-7-7-7-------------------|6-6-6-6-6-6-6-6--------------------|

Outro
1|---------------------------------|
2|---------------------------------|
3|---------------------------------|
4|-7-7-7-7-7-7-7-7-9-9-9-9-9-9-9-9-|
5|-7-7-7-7-7-7-7-7-9-9-9-9-9-9-9-9-|
6|-5-5-5-5-5-5-5-5-7-7-7-7-7-7-7-7-|


===========Last Caress=============
Tuning Standard
Misfits - Last Caress

(* strums may not be correct)

Intro

1|--------------------------------------------------------------|
2|--------------------------------------------------------------|
3|--------------------------------------------------------------|
4|-5-------------5-------10--12---10------7---------------------|
5|-3--3--5-------3-------8---10---8-------5---------------------|
6|----1--3------------------------------------------------------|

Verse
1|-----------------------------------------------------------------|
2|-----------------------------------------------------------------|
3|-----------------------------------------------------------------|
4|-5-5-5-5-5-5-5-5-5-5-5-5-5---10--12------------------------------|
5|-3-3-3-3-3-3-3-3-3-3-3-3-3----8--10------------------------------|
6|-----------------------------------------------------------------|

Chorus
1|-------------------------------------------------------------|
2|-------------------------------------------------------------|
3|-10-10-10-10-10-10-10-10---7-7-7-7-7-7-7-7---5-5-5---9-9-9---|
4|-10-10-10-10-10-10-10-10---7-7-7-7-7-7-7-7---5-5-5---9-9-9---|
5|-8--8--8--8--8--8--8--8----5-5-5-5-5-5-5-5---3-3-3---7-7-7---|
6|-------------------------------------------------------------|

1|----------------------------------------------|
2|----------------------------------------------|
3|-------------------10-10-10-10--7-7-7-7-------|
4|-7-7-7-7-7-7-7-7---10-10-10-10--7-7-7-7-------|
5|-7-7-7-7-7-7-7-7---8--8--8--8---5-5-5-5-------|
6|-5-5-5-5-5-5-5-5------------------------------|

Verse 2
1|-----------------------------------------------------------------|
2|-----------------------------------------------------------------|
3|-----------------------------------------------------------------|
4|-5-5-5-5-5-5-5-5-5-5-5-5-5--10---12------------------------------|
5|-3-3-3-3-3-3-3-3-3-3-3-3-3---8---10------------------------------|
6|-----------------------------------------------------------------|

1|----------------------------------------------------------|
2|----------------------------------------------------------|
3|----------------------------------------------------------|
4|--10-10-10-10-10-10-10-10---77777777----555555555555555---|
5|--8--8--8--8--8--8--8--8----55555555----333333333333333---|
6|----------------------------------------------------------|

Interlude
1|-----------------------------------------------------------------|
2|-----------------------------------------------------------------|
3|-----------------------------------------------------------------|
4|5-5-5-5-5-5-5-5-5-5-5-5--10-10-10--12--12-12---------------------|
5|3-3-3-3-3-3-3-3-3-3-3-3---8--8--8--10--10-10---------------------|
6|-----------------------------------------------------------------|


There you Have it. Misfits Beware
Suggest correction
comments
print report bad tab
2 comments total.
0 reply
Notoriousdoc 195 Apr 20, 2006 02:44 PM

Generally inaccurate, wrong. Needs a LOT of work.

0 reply
Thefallofman 811 Sep 13, 2006 08:46 PM

Not quite. A lot of mistakes. Also, the original Misfits never used any tuning other than standard. Oh, and Googy didn't play on this, Mr. Jim and Joey Image did.

guest
You may want to rate the tab now too:
select rating
Wanna post a correction for this tab? Suggest correction