Oops, an error
Loading. Please wait.

Blacklight Tab

version 2
version 2

Whole song

695 views 3 this week
no commentswrite comment
1 2 3 4 5
accurate
x 9
add to favorites
launch autoscroll
font size
0
reset
how to read this tab
guitar tuner
Autoscroll
slow
fast
+/-
esc
set tempo
stop
Help us to improve Ultimate-Guitar.com Take our survey!
×
Contributor
-------------------------------------------------------------------------------
                             Blacklight - Misfits
-------------------------------------------------------------------------------
Tabbed by: Astrozombie138 (Antero Sosa)
Email: astrozombie138@gmail.com

Tuning: 1/2 step down
(intro)
eb|---------------------------------------------------------------------------|
Bb|---------------------------------------------------------------------------|
Gb|---------------------------------------------------------------------------|
Db|---------------5-5-5-5-5-5---2--------------------------------5-5-5-5-5----|
Ab|--\3-3-3-3-3-3-3-3-3-3-3-3-0-0-0h3p0h3p0h3p0h3~p0-3-3-3-3-3-3-3-3-3-3-3-\--|
Eb|--\1-1-1-1-1-1------------------------------------1-1-1-1-1-1-----------\--|

(riff 2)
eb|---------------------------------------------------------------------------|
Bb|---------------------------------------------------------------------------|
Gb|---------------------------------------------------------------------------|
Db|---------------------------------------------------------------------------|
Ab|--7--7-7-7-7-7-7---5-7--7-7-7-7-7-7---3~p0---------------------------------|
Eb|--5--5-5-5-5-5-5---3-5--5-5-5-5-5-5----------------------------------------|
(PM)    . . . . . .        . . . . . .

(riff 3)
eb|---------------------------------|
Bb|---------------------------------|
Gb|---------------------------------|
Db|---------------------------------|
Ab|--3-3-3-3-3-3--7-7-7-7-7-7-------|
Eb|--1-1-1-1-1-1--5-5-5-5-5-5-------|

(riff 4)
eb|------------------------------------|
Bb|------------------------------------|
Gb|------------------------------------|
Db|---7-7-7-7-7-7-7-7--7/9-------------|
Ab|---5-5-5-5-5-5-5-5--5/7-------------|
Eb|------------------------------------|
(PM)  . . . . . . . .

(riff 5)
eb|--------------------------------|
Bb|--------------------------------|
Gb|--------------------------------|
Db|---------------5-5-5-5-5-5------|
Ab|--3-3-3-3-3-3--3-3-3-3-3-3------|
Eb|--1-1-1-1-1-1-------------------|

(riff 6)
eb|---------------------------------------------------------|
Bb|---------------------------------------------------------|
Gb|---------------------------------------------------------|
Db|----------------14-14-14-14------------------------------|
Ab|--15-15-15-15---12-12-12-12------------------------------|
Eb|--13-13-13-13--------------------------------------------|

(outro)
eb|-----------------------------------------------------------------------|
Bb|-----------------------------------------------------------------------|
Gb|-----------------------------------------------------------------------|
Db|--------------5-5-5-5-5-5------------------------5-5-5-5-5----2:-------|
Ab|--3-3-3-3-3-3-3-3-3-3-3-3--7---------3-3-3-3-3-3-3-3-3-3-3--0-0:--5-7--|
Eb|--1-1-1-1-1-1--------------5---/17~--1-1-1-1-1-1------------------3-5--|


order:
intro         1x
riff 2        8x
riff 3        4x
riff 4        1x
riff 5        1x
riff 2        4x
riff 3        4x
riff 4        1x
riff 6        4x
riff 4        1x
outro         1x


| PM Palm mute
| :  Hold chord
| /  slide up
| \  slide down
| h  hammer-on
| p  pull-off
| ~  vibrato
| +  harmonic
| x  Mute note
===============================================================================
comments
print report bad tab
I want to post or [tab]
guest
You may want to rate the tab now too:
select rating
Please do not post tabs as comments. Select "correction" instead!