Oops, an error
Loading. Please wait.

Death Comes Ripping Tab

version 1
version 1

Whole song

Interactive

by Misfits
4,037 views 9 this week
1 commentread comment
1 2 3 4 5
1 last vote to show rating
add to favorites
launch autoscroll
font size
0
reset
how to read this tab
guitar tuner
×
Best way to learn
"Death Comes Ripping"
Autoscroll
slow
fast
+/-
esc
set tempo
stop
Band: Misfits
Song: Death Comes Ripping
Album: Collection 1
Tabber: Stefan Downey 
E-Mail: self_made@hotmail.com

This is one of my favourite Misfits songs and there are no tabs out there.
So I thought i'd make one here it goes:


Intro Repeat 4X           ( )= Palm Tute
E-----------------------   X = Amount Of Times
B-----------------------
G--------10-99----------
D-777777-10-99----------
A-777777-8--77----------
E-555555----------------

Verse Repeat 4X
E-----------------------------
B-----------------------------
G--------------------10-99----                      
D-(7)(7)(7)(7)(7)(7)-10-99----               
A-(7)(7)(7)(7)(7)(7)-8--77----
E-(5)(5)(5)(5)(5)(5)----------

Chorus Repeat 4X
E-----------------------------
B-----------------------------
G777777-----------------------
D777777-8-77------------------
A555555-8-77------------------
E-------6-55------------------

Any Suggestions Or Comments E-Mail Me Or Add Me To My Messenger At
self_made@homail.com Hope You Enjoy, Thanks :D
Suggest correction
Give kudos to tab author, rate the tab!
1 2 3 4 5
comments
print report bad tab
1 comment total.
0 reply
gabe666 10 Jan 21, 2010 01:39 PM

i play the chorus like this
E-----------------------------
B-----------------------------
G777777-----------------------
D777777-8-55------------------
A555555-8-55------------------
E-------6-33------------------

guest
You may want to rate the tab now too:
select rating
Wanna post a correction for this tab? Suggest correction