Oops, an error
Loading. Please wait.

Death Comes Ripping Bass Tab

version 2
version 2

Whole song

Interactive

935 views 6 this week
no commentswrite comment
1 2 3 4 5
excellent!
x 3
add to favorites
launch autoscroll
font size
0
reset
guitar tuner
Tab Pro tools
  • play this tab
  • loop segment
  • change instrument
  • show fretboard
  • metronome
×
Best way to learn
"Death Comes Ripping"
Autoscroll
slow
fast
+/-
esc
set tempo
stop
Contributor
Intro/Main
G-------------|-------------|-------------|-------------|
D-------------|-------------|-------------|-------------|
A---------8-7-|---------8-7-|---------8-7-|---------8-7-|
E-5-5-5-5-----|-5-5-5-5-----|-5-5-5-5-----|-5-5-5-5-----|

Verse "Turn the lights down low"
G-------------|-------------|-------------|-------------|
D-------------|-------------|-------------|-------------|
A---------8-7-|---------8-7-|---------8-7-|---------8-7-|
E-5-5-5-5-----|-5-5-5-5-----|-5-5-5-5-----|-5-5-5-5-----|

"Shotgun Blast a Demon Piece Of Lead"
G-------------------------|
D-------------------------|
A-5-5-5-5-5-5-5-5-5-5-5-5-|
E-------------------------|

Main Riff
G-------------|-------------|-------------|-------------|
D-------------|-------------|-------------|-------------|
A---------8-7-|---------8-7-|---------8-7-|---------8-7-|
E-5-5-5-5-----|-5-5-5-5-----|-5-5-5-5-----|-5-5-5-5-----|

Verse "With Both Eyes Open"
G-------------|-------------|-------------|-------------|
D-------------|-------------|-------------|-------------|
A---------8-7-|---------8-7-|---------8-7-|---------8-7-|
E-5-5-5-5-----|-5-5-5-5-----|-5-5-5-5-----|-5-5-5-5-----|

Chorus "Whoa Death Comes Ripping"
G---------------------------------|---------------------------------|
D---------------------------------|---------------------------------|
A-5-5-5-5-5-5-5-5-1-1-1-1---------|-5-5-5-5-5-5-5-5-1-1-1-1---------|
E-------------------------3-3-3-3-|-------------------------3-3-3-3-|

G---------------------------------|---------------------------------|
D---------------------------------|---------------------------------|
A-5-5-5-5-5-5-5-5-1-1-1-1---------|-5-5-5-5-5-5-5-5-1-1-1-1---------|
E-------------------------3-3-3-3-|-------------------------3-3-3-3-|

Main Riff
G-------------|-------------|-------------|-------------|
D-------------|-------------|-------------|-------------|
A---------8-7-|---------8-7-|---------8-7-|---------8-7-|
E-5-5-5-5-----|-5-5-5-5-----|-5-5-5-5-----|-5-5-5-5-----|

Verse "Flesh and blood"
G-------------|-------------|-------------|-------------|
D-------------|-------------|-------------|-------------|
A---------8-7-|---------8-7-|---------8-7-|---------8-7-|
E-5-5-5-5-----|-5-5-5-5-----|-5-5-5-5-----|-5-5-5-5-----|

Chorus "Whoa Death Comes Ripping"
G---------------------------------|---------------------------------|
D---------------------------------|---------------------------------|
A-5-5-5-5-5-5-5-5-1-1-1-1---------|-5-5-5-5-5-5-5-5-1-1-1-1---------|
E-------------------------3-3-3-3-|-------------------------3-3-3-3-|

G---------------------------------|---------------------------------|
D---------------------------------|---------------------------------|
A-5-5-5-5-5-5-5-5-1-1-1-1---------|-5-5-5-5-5-5-5-5-1-1-1-1---------|
E-------------------------3-3-3-3-|-------------------------3-3-3-3-|

G---------------------------------|---------------------------------|
D---------------------------------|---------------------------------|
A-5-5-5-5-5-5-5-5-1-1-1-1---------|-5-5-5-5-5-5-5-5-1-1-1-1---------|
E-------------------------3-3-3-3-|-------------------------3-3-3-3-|

G---------------------------------|---------------------------------|
D---------------------------------|---------------------------------|
A-5-5-5-5-5-5-5-5-1-1-1-1---------|-5-5-5-5-5-5-5-5-1-1-1-1---------|
E-------------------------3-3-3-3-|-------------------------3-3-3-3-|

Main
G-------------|-------------|-------------|-------------|
D-------------|-------------|-------------|-------------|
A---------8-7-|---------8-7-|---------8-7-|---------8-7-|
E-5-5-5-5-----|-5-5-5-5-----|-5-5-5-5-----|-5-5-5-5-----|

"Whoa"         "Whoa"        "Whoa"        "Whoa"
G-------------|-------------|-------------|-------------|
D-------------|-------------|-------------|-------------|
A---------8-7-|---------8-7-|---------8-7-|---------8-7-|
E-5-5-5-5-----|-5-5-5-5-----|-5-5-5-5-----|-5-5-5-5-----|

G---|
D---|
A---|
E-5-|

This is a 5-Star Perfect tab. Verse indicates Vocals Come in. And Just so you can't 
the quality of this tab here is the chords with lyrics.

A   F E (x4)

A               F E
Turn the lights down low
A                F E
And bolt the door up
A                F E
Future is coming
A                F E
Future rising up

D
Whoa

Shotgun blast, a demon piece of lead

A   F E (x4)

A              F E
With both eyes open
A         F       E
I wait up for the kill
A            F E
Feel the evil
A                  F         E
Feel the heat as I blast you open

D

Bb          G
Death comes ripping
D              Bb          G
And I know it, death comes ripping
D                    Bb          G
You feel the heat as death comes ripping
D
Rip your back out
     Bb          G
And death comes ripping out

A   F E (x4)

A              F E
Flesh and blood
A           F E
Too weak for you
A              F E
Turning it over
A                  F     E
A little too late to penetrate

D

Bb          G
Death comes ripping
D               Bb          G
And it's going, death comes ripping
D                    Bb          G
You feel the heat as death comes ripping
D
Rip your back out
Bb          G
Death comes ripping

D               Bb          G
And it's going, death comes ripping
D                    Bb          G
You feel the heat as death comes ripping
D
Rip your back out
Bb          G
Death comes ripping
D               Bb          G
And I know that death comes ripping out

A   F E (x4)

A   F E
Whoa
A   F E
Whoa
A   F E
Whoa
A   F E
Whoa

A
comments
We did not receive enough feedback on this tab! Please rate:
print report bad tab
1 2 3 4 5
I want to post or [tab]
guest
You may want to rate the tab now too:
select rating
Please do not post tabs as comments. Select "correction" instead!