Oops, an error
Loading. Please wait.

Descending Angel tab

version 3
version 3

Whole song

Interactive

by Misfits
24,891 views 78 this week
no commentswrite comment
1 2 3 4 5
x 6
add to favorites
×
Save as Personal and add changes to this tab that will be seen only by you. Learn more ›
×
You can save this tab as Personal to edit and correct it or add notes. All changes will be seen only by you. Learn more »
launch autoscroll
font size
0
reset
how to read this tab
guitar tuner
edit
Autoscroll
slow
fast
+/-
esc
set tempo
stop
Author
Descending Angel - Misfits
Tabbed by: Astrozombie138
Tuning: 1/2 step down

[riff 1]
eb|---------------------------------------------------------------------------|
Bb|---------------------------------------------------------------------------|
Gb|---------------------------------------------------------------------------|
Db|---------------7--7--7-7-7-------------------------------------------------|
Ab|--9--9--9-9-9--5--5--5-5-5--7--7--7-7-7-------4-4-4-4-4-4------------------|
Eb|--7--7--7-7-7---------------5--5--5-5-5--/-\--2-2-2-2-2-2------------------|(x2)
(PM)                                             . . . . . .

[riff 2]
eb|---------------------------------------------------------------------------|
Bb|---------------------------------------------------------------------------|
Gb|---------------------------------------------------------------------------|
Db|---------------7--7--7-7-7-------------------------------------------------|
Ab|--9--9--9-9-9--5--5--5-5-5--7--7--7-7-7-------4-4-4-4-4-4------------------|
Eb|--7--7--7-7-7---------------5--5--5-5-5-------2-2-2-2-2-2------------------|(x3)
(PM)                                             . . . . . .

[riff 3]
eb|---------------------------------------------------------------------------|
Bb|---------------------------------------------------------------------------|
Gb|---------------------------------------------------------------------------|
Db|---------------7--7--7-7-7-------------------------------------------------|
Ab|--9--9--9-9-9--5--5--5-5-5--7--7--7-7-7-------4----------------------------|
Eb|--7--7--7-7-7---------------5--5--5-5-5-------2----------------------------|

[riff 1]
eb|---------------------------------------------------------------------------|
Bb|---------------------------------------------------------------------------|
Gb|---------------------------------------------------------------------------|
Db|---------------7--7--7-7-7-------------------------------------------------|
Ab|--9--9--9-9-9--5--5--5-5-5--7--7--7-7-7-------4-4-4-4-4-4------------------|
Eb|--7--7--7-7-7---------------5--5--5-5-5--/-\--2-2-2-2-2-2------------------|(x2)
(PM)                                             . . . . . .

[riff 3]
eb|---------------------------------------------------------------------------|
Bb|---------------------------------------------------------------------------|
Gb|---------------------------------------------------------------------------|
Db|---------------7--7--7-7-7-------------------------------------------------|
Ab|--9--9--9-9-9--5--5--5-5-5--7--7--7-7-7-------4----------------------------|
Eb|--7--7--7-7-7---------------5--5--5-5-5-------2----------------------------|

[riff 1]
eb|---------------------------------------------------------------------------|
Bb|---------------------------------------------------------------------------|
Gb|---------------------------------------------------------------------------|
Db|---------------7--7--7-7-7-------------------------------------------------|
Ab|--9--9--9-9-9--5--5--5-5-5--7--7--7-7-7-------4-4-4-4-4-4------------------|
Eb|--7--7--7-7-7---------------5--5--5-5-5--/-\--2-2-2-2-2-2------------------|(x2)
(PM)                                             . . . . . .

[riff 2]
eb|---------------------------------------------------------------------------|
Bb|---------------------------------------------------------------------------|
Gb|---------------------------------------------------------------------------|
Db|---------------7--7--7-7-7-------------------------------------------------|
Ab|--9--9--9-9-9--5--5--5-5-5--7--7--7-7-7-------4-4-4-4-4-4------------------|
Eb|--7--7--7-7-7---------------5--5--5-5-5-------2-2-2-2-2-2------------------|(x4)
(PM)                                             . . . . . .

[riff 3]
eb|---------------------------------------------------------------------------|
Bb|---------------------------------------------------------------------------|
Gb|---------------------------------------------------------------------------|
Db|---------------7--7--7-7-7-------------------------------------------------|
Ab|--9--9--9-9-9--5--5--5-5-5--7--7--7-7-7-------4----------------------------|
Eb|--7--7--7-7-7---------------5--5--5-5-5-------2----------------------------|

[riff 1]
eb|---------------------------------------------------------------------------|
Bb|---------------------------------------------------------------------------|
Gb|---------------------------------------------------------------------------|
Db|---------------7--7--7-7-7-------------------------------------------------|
Ab|--9--9--9-9-9--5--5--5-5-5--7--7--7-7-7-------4-4-4-4-4-4------------------|
Eb|--7--7--7-7-7---------------5--5--5-5-5--/-\--2-2-2-2-2-2------------------|(x2)
(PM)                                             . . . . . .

[riff 3]
eb|---------------------------------------------------------------------------|
Bb|---------------------------------------------------------------------------|
Gb|---------------------------------------------------------------------------|
Db|---------------7--7--7-7-7-------------------------------------------------|
Ab|--9--9--9-9-9--5--5--5-5-5--7--7--7-7-7-------4----------------------------|
Eb|--7--7--7-7-7---------------5--5--5-5-5-------2----------------------------|

[riff 1]
eb|---------------------------------------------------------------------------|
Bb|---------------------------------------------------------------------------|
Gb|---------------------------------------------------------------------------|
Db|---------------7--7--7-7-7-------------------------------------------------|
Ab|--9--9--9-9-9--5--5--5-5-5--7--7--7-7-7-------4-4-4-4-4-4------------------|
Eb|--7--7--7-7-7---------------5--5--5-5-5--/-\--2-2-2-2-2-2------------------|(x2)
(PM)                                             . . . . . .

[riff 2]
eb|---------------------------------------------------------------------------|
Bb|---------------------------------------------------------------------------|
Gb|---------------------------------------------------------------------------|
Db|---------------7--7--7-7-7-------------------------------------------------|
Ab|--9--9--9-9-9--5--5--5-5-5--7--7--7-7-7-------4-4-4-4-4-4------------------|
Eb|--7--7--7-7-7---------------5--5--5-5-5-------2-2-2-2-2-2------------------|(x4)
(PM)                                             . . . . . .

[Solo](I suck at solos)
eb|---------------------------------------------------------------------------|
Bb|---------------------------------------------------------------------------|
Gb|---------------------------------------------------------------------------|
Db|--4/9~--9/11/12~----12-11--9h11h12p11p9--7h9--9-11-9/12--12/14--14h17p16---|
Ab|---------------------------------------------------------------------------|
Eb|---------------------------------------------------------------------------|

eb|---------------------------------------------------------------------------|
Bb|---------------------------------------------------------------------------|
Gb|---------------------------------------------------------------------------|
Db|-p14h17p16p14h17p16p14h17p16--16~-/14--------------------------------------|
Ab|---------------------------------------------------------------------------|
Eb|---------------------------------------------------------------------------|

eb|---------------------------------------------------------------------------|
Bb|---------------------------------------------------------------------------|
Gb|---------------------------------------------------------------------------|
Db|--9-8---9--8---9--8---9--8----7-6---7--6---7--6---7--6---5-4---5--4--------|
Ab|------9------9------9------9------7------7------7-----7------4-------7-5---|
Eb|---------------------------------------------------------------------------|

eb|---------------------------------------------------------------------------|
Bb|---------------------------------------------------------------------------|
Gb|---------------------------------------------------------------------------|
Db|--7-6---7--6----9-8---9--8----9^\------------------------------------------|
Ab|------7------9------9------9-----------------------------------------------|
Eb|---------------------------------------------------------------------------|

[riff 2]
eb|---------------------------------------------------------------------------|
Bb|---------------------------------------------------------------------------|
Gb|---------------------------------------------------------------------------|
Db|---------------7--7--7-7-7-------------------------------------------------|
Ab|--9--9--9-9-9--5--5--5-5-5--7--7--7-7-7-------4-4-4-4-4-4------------------|
Eb|--7--7--7-7-7---------------5--5--5-5-5-------2-2-2-2-2-2------------------|(x4)
(PM)                                             . . . . . .

[riff 3]
eb|---------------------------------------------------------------------------|
Bb|---------------------------------------------------------------------------|
Gb|---------------------------------------------------------------------------|
Db|---------------7--7--7-7-7-------------------------------------------------|
Ab|--9--9--9-9-9--5--5--5-5-5--7--7--7-7-7-------4----------------------------|
Eb|--7--7--7-7-7---------------5--5--5-5-5-------2----------------------------|

[riff 2]
eb|---------------------------------------------------------------------------|
Bb|---------------------------------------------------------------------------|
Gb|---------------------------------------------------------------------------|
Db|---------------7--7--7-7-7-------------------------------------------------|
Ab|--9--9--9-9-9--5--5--5-5-5--7--7--7-7-7-------4-4-4-4-4-4------------------|
Eb|--7--7--7-7-7---------------5--5--5-5-5-------2-2-2-2-2-2------------------|(x4)
(PM)                                             . . . . . .

[riff 5]
eb|---------------------------------------------------------------------------|
Bb|---------------------------------------------------------------------------|
Gb|---------------------------------------------------------------------------|
Db|---------------7--7--7-7-7-------------------------------------------------|
Ab|--9--9--9-9-9--5--5--5-5-5--7--7--7-7-7-------4-4-4-4-4-4------------------|
Eb|--7--7--7-7-7---------------5--5--5-5-5-------2-2-2-2-2-2------------------|

[riff 3]
eb|---------------------------------------------------------------------------|
Bb|---------------------------------------------------------------------------|
Gb|---------------------------------------------------------------------------|
Db|---------------7--7--7-7-7-------------------------------------------------|
Ab|--9--9--9-9-9--5--5--5-5-5--7--7--7-7-7-------4----------------------------|
Eb|--7--7--7-7-7---------------5--5--5-5-5-------2----------------------------|

************************************

| b   Bend
| /   Slide up
| \   Slide down
| PM  Palm mute
| h   Hammer-on
| p   Pull-off
| ~   Vibrato

************************************

            
            
Suggest correction
Creating personal tab
Creating personal tab
You can edit any tab online and save it as your Personal.

You can edit, replace or remove any tab part or add personal notes – all changes will be seen only by you.

Personal tabs can be accessed anytime from any device, even offline.
Learn more »
comments
print report bad tab
guest
You may want to rate the tab now too:
select rating
Wanna post a correction for this tab? Suggest correction