Oops, an error
Loading. Please wait.

Die Die My Darling bass

version 2
version 2

Whole song

Interactive

by Misfits
8,159 views 3 this week
no commentswrite comment
1 2 3 4 5
x 4
add to favorites
×
Save as Personal and add changes to this tab that will be seen only by you. Learn more ›
×
You can save this tab as Personal to edit and correct it or add notes. All changes will be seen only by you. Learn more »
launch autoscroll
font size
0
reset
guitar tuner
edit
Autoscroll
slow
fast
+/-
esc
set tempo
stop
Difficulty
Originaly in studio album is the first riff the same like the last, but I've seen a few 
videos, where Jerry has played it exactly like this...
   Main riff:
    G-------------------------------------------------|
    D-------------------------------------------------|
    A--9-9-9-9----------------------------------------|
    E-7-7-7-7---3-3-3-3-2-2-2-2-2-2-2-2-2-------------|


   Bridge:	(I'll be seeing you again i'll be seeing you in hell)
    G---------------------------------------------|
    D---------------------------------------------|
    A-----------2-2-2-2-2-2-----------------------|
    E-0-0-0-0-0------------0-0-0-0-0-0-0-3-3-3-3--|


   Verse: (Don't cry to me oh baby. Your future is in oblong box yeah...)
	G----------------------------------------------|
	D----------------------------------------------|
	A-2-2-2-2-2-2-2-2-2----------5-5-4-4-----------|
	E--------------------3-3-3-3-------------------|

   Simplified main riff at the end:
	G--------------------------------------------|
	D--------------------------------------------|
	A-2-2-2-2-2-2-2-2----------------------------|
	E---------------------3-3-3-3-2-2-2-2-2------|
Suggest correction
Creating personal tab
Creating personal tab
You can edit any tab online and save it as your Personal.

You can edit, replace or remove any tab part or add personal notes – all changes will be seen only by you.

Personal tabs can be accessed anytime from any device, even offline.
Learn more »
comments
print report bad tab
guest
Wanna post a correction for this tab? Suggest correction