Oops, an error
Loading. Please wait.

Die Monster Die Bass Tab

version 2
version 2

Whole song

Interactive

586 views 1 this week
no commentswrite comment
1 2 3 4 5
please rate
add to favorites
launch autoscroll
font size
0
reset
guitar tuner
Tab Pro tools
  • play this tab
  • loop segment
  • change instrument
  • show fretboard
  • metronome
Autoscroll
slow
fast
+/-
esc
set tempo
stop
Difficulty
intermediate
**Guitar Intro**

Bass intro (when the drum starts) 0:05
G-----------------|
D-----------------|
A-----------------|
E-0-0-0-0-0-0-0-0-|

Verse (First thing's first) 0:08
G-------------------------------------------|
D-------------------------------------------|
A-----4-4-4-----5-5-5-----------------------| (2x)
E-5-5-------2-2-------5-5---0-0-0-0-0-0-0-0-|

Chorus (Die, die monster die) 0:22
G---------------------------------|
D-------------------------0-0-0-0-|
A-0-0-0-0-0-0-0-0-2-2-2-2---------| (3x)
E---------------------------------|

Post Chorus 0:33
G-----------------|
D-----------------|
A-----------------|
E-0-0-0-0-0-0-0-0-|

Verse (First thing's first) 0:36
G-------------------------------------------|
D-------------------------------------------|
A-----4-4-4-----5-5-5-----------------------| (2x)
E-5-5-------2-2-------5-5---0-0-0-0-0-0-0-0-|

Chorus 0:48
G---------------------------------|
D-------------------------0-0-0-0-|
A-0-0-0-0-0-0-0-0-2-2-2-2---------| (3x)
E---------------------------------|

Post Chorus 0:59
G-----------------|
D-----------------|
A-----------------| (2x)
E-0-0-0-0-0-0-0-0-|

Bridge (There's a Place) 1:02
G-----------------------------|
D-----------------------------|
A-------------------------5-5-| (3x)
E-5-5-5-5-5-5-5-5-5-5-5-5-----|

And Then 1:11
G---------------------|
D---------------------|
A---------------------|
E-5-5-5-5-5-5-5-5-5-5-|

Solo (same as verse)1:14
G-------------------------------------------|
D-------------------------------------------|
A-----4-4-4-----5-5-5-----------------------| (2x)
E-5-5-------2-2-------5-5---0-0-0-0-0-0-0-0-|

Then (same as Post Chorus) 1:25
G-----------------|
D-----------------|
A-----------------|
E-0-0-0-0-0-0-0-0-|

Chorus 1:28
G---------------------------------|
D-------------------------0-0-0-0-|
A-0-0-0-0-0-0-0-0-2-2-2-2---------| (7x)
E---------------------------------|

Post Chorus 1:51
G-----------------|
D-----------------|
A-----------------| (3x)
E-0-0-0-0-0-0-0-0-|

End 1:55
G------------|
D------------|
A-5----------|
E----------5-|
comments
We did not receive enough feedback on this tab! Please rate:
print report bad tab
1 2 3 4 5
I want to post or [tab]
guest
You may want to rate the tab now too:
select rating
Please do not post tabs as comments. Select "correction" instead!