Oops, an error
Loading. Please wait.

Evilive Tab

1,074 views 1 this week
4 commentsread comments
1 2 3 4 5
please rate
add to favorites
launch autoscroll
font size
0
reset
how to read this tab
guitar tuner
Autoscroll
slow
fast
+/-
esc
set tempo
stop
Help us to improve Ultimate-Guitar.com Take our survey!
×
Author
This is a compilation of all songs on the album. Tabbers are credited. Have fun playing!

Band: Misfits
Song: 20 Eyes

Tabber: John Cukras
Email: riffreaper@yahoo.com

Tuning: Normal

Riff 1:  Part A                       Part B
E-----------------------------|------------------------|
B-----------------------------|------------------------|
G-----------------------------|------------------------|
D--------222222---------------|-------22222------44-22-|
A-444444-222222-4444444-------|-44444-22222-4444-22-22-|
E-222222-000000-2222222-x's 3-|-22222-00000-2222----00-|

Riff 1: Part A x's 2 , Part B , Part A once

Riff 2:
E--------------------------------------|
B--------------------------------------|
G--------------------------------------|
D-6666666--------------666666--444-222-|
A-4444444-4444444------444444--222-222-|
E---------2222222-x'3--------------000-|

Riff 1: Part A x's 2 , Part B , Part A

Riff 2

Riff 1: Part A x's 2 , Part B x's 3

End:
E------------------------------------|
B------------------------------------|
G------------------------------------|
D-------2222-------444-444-444-444-4-|
A-44444-2222-4444--222-222-222-222-2-|
E-22222-0000-2222--------------------|

-------------------------------------------------------------------------------
                       NIGHT OF THE LIVING DEAD - Misfits
-------------------------------------------------------------------------------

By:BRIAN AKERS-cadcock@i-55.com
  
  INTRO/CH0RUS:5 TIMES
e|--------------------------------------------------------------------|
B|--------------------------------------------------------------------|
G|--------------------------------------------------------------------|
D|55555555-------------------33333333---------------------------------|
A|33333333-55555555-33333333-11111111---------------------------------|
E|---------33333333-11111111------------------------------------------|
  
  VERSE:(8 TIMES)  PRE-CHORUS
e|---------------|----------------------------------------------------|
B|---------------|----------------------------------------------------|
G|---------------|----------------------------------------------------|
D|-------33333333|-222233-333-2222233-3333-222223333------------------|
A|3333333--------|-000011-111-0000011-1111-000001111-55555555555------|
E|---------------|-----------------------------------33333333333------|

   CHORUS (SAME AS INTRO):4 TIMES
   2nd VERSE (ONLY 4 TIMES)
   PRE-CHOURUS
   CHOURUS
   
OUTRO:
e|--------------------------------------------------------------------|
B|--------------------------------------------------------------------|
G|--------------------------------------------------------------------|
D|--------------------------------------------------------------------|
A|555555555555555555555555555555555-----------------------------------|
E|333333333333333333333333333333333-----------------------------------|


Astro Zombies

By Jimnal (http://www.astr0-z0mbie.tk) 

Intro: 

e|---------------------| 
B|---------------------| 
G|-55-4----------------| 
D|-55-4-77-5-3333-5555-| 
A|-33-2-77-5-3333-5555-| 
E|------55-3-1111-3333-| 

Verse: 

e|--------------------| 
B|--------------------| 
G|-55555555-----------| 
D|-55555555-3333-5555-| 
A|-33333333-3333-5555-| 
E|----------1111-3333-| 

Chorus: 

e|--------------------------------------| 
B|--------------------------------------| 
G|-55555555----------77777777-----------| 
D|-55555555-77777777-77777777-3333-5555-| 
A|-33333333-77777777-55555555-3333-5555-| 
E|----------55555555----------1111-3333-| 

Order: 

Intro: x2 
Verse: x2 
Chorus: x4 
Verse: x2 
Chrous: x4 
Verse: x4 
Intro: x2

-------------------------------------------------------------------------------
			     Horror Business - Misfits
-------------------------------------------------------------------------------
Tabbed by: Astrozombie138

Tuning: standard


(riff 1)
e|-----------------------------------------------------|
B|-----------------------------------------------------|
G|-----------------------------------------------------|
D|-----------------------------------------------------|
A|--8-7--5-5---5--5-5---5--5-5---5--5-5---5--8-8-7-7---|
E|--6-5--3-3-6-3--3-3-6-3--3-3-6-3--3-3-6-3--6-6-5-5---|

(riff 2)
e|-------------------------------------|------------|
B|-------------------------------------|------------|
G|-------------------------------------|------------|
D|-------------------------------------|------------|
A|--5-5---5--5-5---5--5-5---5--5-5---5-|-8-8-7-7----|
E|--3-3-6-3--3-3-6-3--3-3-6-3--3-3-6-3-|-6-6-5-5----|

(riff 3)
e|--------------------------------------|
B|--------------------------------------|
G|--------------------------------------|
D|--------------------------------------|
A|--8-8-8-8-8-7-7-7-7-7-10-10-10-10-10--|
E|--6-6-6-6-6-5-5-5-5-5-8--8--8--8--8---|

(chorus)
e|-------------------------------------------------------------------------------|
B|-------------------------------------------------------------------------------|
G|-------------------------------------------------------------------------------|
D|-10-10-10-10-10-10-10----------------------------------------------------------|
A|-8--8--8--8--8--8--8--10-10-10-10-10-10-10--8-8-8-8-8-8-8--10-10-10-10-10-10-10|
E|----------------------8--8--8--8--8--8--8---6-6-6-6-6-6-6--8-8-8-8-8-8-8-8-8-8-|

(solo)
e|--13-13-13-13-13-13-13-13---8-8-8-8-8-8-8-6-6-6-6-6-6-6-8-8-8-8-8-8--------|
B|--13-13-13-13-13-13-13-13---8-8-8-8-8-8-8-6-6-6-6-6-6-6-8-8-8-8-8-8--------|
G|---------------------------------------------------------------------------|
D|---------------------------------------------------------------------------|
A|---------------------------------------------------------------------------|
E|---------------------------------------------------------------------------|

(solo cont.)
e|---------------------------------------------------------------------------|
B|--6^-6^-6^--8^-8^-8^--11^-11^-11^-13^-13^-13^------------------------------|
G|-----------------------------------------------12h14(trill)----------------|
D|---------------------------------------------------------------------------|
A|---------------------------------------------------------------------------|
E|---------------------------------------------------------------------------|

order:
riff 1       1x
riff 2       5x
riff 3       1x
riff 1       1x
riff 2       5x
riff 3       1x
chorus       4x
riff 1       1x
riff 2       5x
riff 3       1x
riff 1       1x
riff 2       5x
riff 3       1x
chorus       4x
solo         1x(another guitar plays chorus over this)
chorus       2x(1st time palm muted)
end with F chord

MISFITS
LONDON DUNGEON
by guillermo luppi
==================
  Main Riff:
E|---------------------------------|
B|---------------------------------|  Slide between these
G|---------------------------------|  notes on the E string.
D|---------------------------------|
A|---------------------------------|
E+-0-----7-----3---5-----3-----2---+
 |                                 |
 |                                 |
G+---------------------------------+
D|---------------------------------|
A|---------------------------------|
E|-0-0-0-0-0-0-0-0-5-5-5-3-3-3-2-2-|

  Verse Riff:
  Guitar:  During the verses, the guitars play Emin chords
           (and feedback) at the beginning of each measure.
           Live, the guitar would double the bass riff.
  Bass:    Continues the Main Riff simile throughout the verses.

  Chorus Riff:
E|---------------------------------|-0-------------------------------|
B|---------------------------------|-0-------------------------------|
G|---------------------------------|-0-------------------------------|
D|-2-2-3---2-2-3---2-2-3---2-2-3---|-2-------------------------------|
A|-2-2-3---2-2-3---2-2-3---2-2-3---|-2-------------------------------|
E+-0-0-1---0-0-1---0-0-1---0-0-1---|-0-------------------------------+
 | pm>     pm>     pm>     pm>       w/feedback and random noise     |
 |                                                                   |
G+---------------------------------|---------------------------------+
D|---------------------------------|---------------------------------|
A|---------------------------------|---------------------------------|
E+-0-0-1---0-0-1---0-0-1---0-0-1---|-0-------------------------------+
 |                                                                   |
 |                                                                   |
E+---------------------------------|---------------------------------+
B|---------------------------------|---------------------------------|
G|---------------------------------|---------------------------------|
D|---------------------------------|---------------------------------|
A|-8-------3-------8-------3-------|-7-------------------------------|
E|---------------------------------|---------------------------------|

  Chorus End:
E|---------------------------------|---------------------------------|
B|---------------------------------|---------------------------------|
G|---------------------------------|---------------------------------|
D|-2-2-3---2-2-3---2-2-3---2-2-3---|-2-2-5---2-2-5---2-2-5---2-2-5---|
A|-2-2-3---2-2-3---2-2-3---2-2-3---|-2-2-5---2-2-5---2-2-5---2-2-5---|
E+-0-0-1---0-0-1---0-0-1---0-0-1---|-0-0-3---0-0-3---0-0-3---0-0-3---+
 | pm>     pm>     pm>     pm>       pm>     pm>     pm>     pm>     |
 |                                                                   |
G+---------------------------------|---------------------------------+
D|---------------------------------|---------------------------------|
A|---------------------------------|---------------------------------|
E+-0-0-1---0-0-1---0-0-1---0-0-1---|-0-0-3---0-0-3---0-0-3---0-0-3---+
 |                                                                   |
 |                                                                   |
E+---------------------------------|---------------------------------+
B|---------------------------------|---------------------------------|
G|---------------------------------|---------------------------------|
D|---------------------------------|---------------------------------|
A|-8-------3-------8-------12------|-10------5-------10------14------|
E|---------------------------------|---------------------------------|

-songflow-
 drums...
 main riff     (4x) bass only
 main riff     (4x) guitar enters
 verse riff    (4x)
 main riff     (2x)
 verse riff    (4x)
 chorus riff   (2x)
 chorus end
 main riff     (2x)
 verse riff    (4x)
 chorus riff   (2x)
 chorus end
 main riff     (2x) guitar doubles bass riff
 verse riff    (4x)
 chorus riff   (2x)
 chorus end
 main riff     (4x) fade out...

band: Misfits
Song: nike a go go

Tabber: John Cukras
email: riffreaper@yahoo.com

Tuning: normal

riff 1:
E-------------------------------------------------
B-------------------------------------------------
G-------------------------------------------------
D----------------------55-44----------------------
A-55555-888888-333333--33-22-88-77-55------------5 x's 4
E-33333-666666-111111--------66-55-33 x's 2 -----3

Riff 2:
E-----------------------------
B-----------------------------
G-----------------------------
D----------5-4----------------
A-5--8--3--3-2-8-7-5---------5
E-3--6--1------6-5-3 x's 4---3 x's 4

Riff 2 

Riff 3
E-------------------------------------------------------
B-------------------------------------------------------
G-------------------------------------------------------
D---------5555555-----------------55555555-88888888-----
A-5555555-3333333----5------------33333333-66666666----5
E-3333333------------3 x's 4---------------------------3 x's 4

Riff 4:
E--------
B--------
G--------
D----2--7
A-3--2--5
E-1--0---  x's 13

-------------------------------------------------------------------------------
			Hate Breeders - Misfits
-------------------------------------------------------------------------------
Tabbed by: Astrozombie138

Tuning: standard

(verse)(I am not sure if these chords are strum multiple times)
e|-----------------|---------------------------------------------------------|
B|-----------------|---------------------------------------------------------|
G|-----------------|---------------------------------------------------------|
D|--------------8:-|-6-6-6-6-6-6-6-6--8-8-8-8-8-8-8-8------------------------|
A|--9:--4:--6:--6:-|-4-4-4-4-4-4-4-4--6-6-6-6-6-6-6-6---6:--4:---------------|
E|--7:--2:--4:-----|------------------------------------4:--2:---------------|

(chorus)
e|-------------------|
B|-------------------|
G|-------------------|
D|------9:---9--9-9--|
A|--9:--7:---7--7-7--|
E|--7:---------------|

(solo riff)
e|--6-7-7-7-7---|
B|--------------|
G|--------------|
D|--------------|
A|--------------|
E|--------------|



verse        1x
chorus       2x
verse        1x
chorus       4x
verse        1x
chorus       4x
solo riff    9x
verse        1x(second part only)
chorus       4x
verse        1x
chorus       6x


-----------------------------------------------------------------------------
                    Devil's Whorehouse-The Misfits
-----------------------------------------------------------------------------
Tabbed by: Dann Cove
Email: notoriousdoc99@hotmail.co.uk

Tuning: Standard

Intro/verse
e|-------------------|
B|-------------------|
G|-------------------|
D|-------------------|
A|-------------------|
E|--0-2-3-22-23-5-3--|x2 for intro, x4 for verse

Chorus
e|--------------------------------------------|
B|--------------------------------------------|
G|--5-9-9-7-10-10-9/7-97-5-9-9-7-10-10-12-12--|
D|--5-9-9-7-10-10-9/7-97-5-9-9-7-10-10-12-12--|
A|--3-7-7-5-8--8--7/5-75-3-7-7-5-8--8--10-10--|
E|--------------------------------------------|

Post-chorus
e|---------------------------|
B|---------------------------|
G|---------------------------|
D|--12-12-12-12-12-12-10-11--|
A|--12-12-12-12-12-12-10-11--|
E|--10-10-10-10-10-10-8--9---|

Ending
e|---------|
B|---------|
G|--9*-----|
D|--9*--2--|
A|--7*--2--|
E|------0--| *Play it a few times for the last "Whoa!"s

Intro
Verse
Chorus
Intro
Verse
Chorus
Post Chorus
Intro
Verse
Chorus
Post Chorus
Chorus x 2
Ending

Band: Misfits
Song: All Hell Breaks Loose

Tabber: John Cukras
Email: riffreaper@yahoo.com

Tuning: normal

Riff 1:  A                              B
E----------------------------------|---------------|
B----------------------------------|---------------|
G----------------------------------|---------------|
D-77777777-101010-5555-3333 x's 5--|-10-10-----5-3-|
A-55555555-888888-3333-1111--------|-8--8------3-1-|
E----------------------------------|-------000-----|
pm                                         ...

Riff 1: A x's 4 , B

Riff 2:
E------------------------------------|
B------------------------------------|
G------------------------------------|
D-7777777------5555-777777------5555-| x's 2
A-5555555-5555-3333-555555-5555-3333-|
E---------3333-------------3333------|

Riff 1: A x's 4 , B (no pm's)

Riff 2 x's 4

End:
E----------|
B----------|
G----------|
D-7-----10-|
A-5--5--8--|
E----3-----|

-------------------------------------------------------------------------------
			     Horror Business - Misfits
-------------------------------------------------------------------------------
Tabbed by: Astrozombie138

Tuning: standard


(riff 1)
e|-----------------------------------------------------|
B|-----------------------------------------------------|
G|-----------------------------------------------------|
D|-----------------------------------------------------|
A|--8-7--5-5---5--5-5---5--5-5---5--5-5---5--8-8-7-7---|
E|--6-5--3-3-6-3--3-3-6-3--3-3-6-3--3-3-6-3--6-6-5-5---|

(riff 2)
e|-------------------------------------|------------|
B|-------------------------------------|------------|
G|-------------------------------------|------------|
D|-------------------------------------|------------|
A|--5-5---5--5-5---5--5-5---5--5-5---5-|-8-8-7-7----|
E|--3-3-6-3--3-3-6-3--3-3-6-3--3-3-6-3-|-6-6-5-5----|

(riff 3)
e|--------------------------------------|
B|--------------------------------------|
G|--------------------------------------|
D|--------------------------------------|
A|--8-8-8-8-8-7-7-7-7-7-10-10-10-10-10--|
E|--6-6-6-6-6-5-5-5-5-5-8--8--8--8--8---|

(chorus)
e|-------------------------------------------------------------------------------|
B|-------------------------------------------------------------------------------|
G|-------------------------------------------------------------------------------|
D|-10-10-10-10-10-10-10----------------------------------------------------------|
A|-8--8--8--8--8--8--8--10-10-10-10-10-10-10--8-8-8-8-8-8-8--10-10-10-10-10-10-10|
E|----------------------8--8--8--8--8--8--8---6-6-6-6-6-6-6--8-8-8-8-8-8-8-8-8-8-|

(solo)
e|--13-13-13-13-13-13-13-13---8-8-8-8-8-8-8-6-6-6-6-6-6-6-8-8-8-8-8-8--------|
B|--13-13-13-13-13-13-13-13---8-8-8-8-8-8-8-6-6-6-6-6-6-6-8-8-8-8-8-8--------|
G|---------------------------------------------------------------------------|
D|---------------------------------------------------------------------------|
A|---------------------------------------------------------------------------|
E|---------------------------------------------------------------------------|

(solo cont.)
e|---------------------------------------------------------------------------|
B|--6^-6^-6^--8^-8^-8^--11^-11^-11^-13^-13^-13^------------------------------|
G|-----------------------------------------------12h14(trill)----------------|
D|---------------------------------------------------------------------------|
A|---------------------------------------------------------------------------|
E|---------------------------------------------------------------------------|

order:
riff 1       1x
riff 2       5x
riff 3       1x
riff 1       1x
riff 2       5x
riff 3       1x
chorus       4x
riff 1       1x
riff 2       5x
riff 3       1x
riff 1       1x
riff 2       5x
riff 3       1x
chorus       4x
solo         1x(another guitar plays chorus over this)
chorus       2x(1st time palm muted)
end with F chord



Band: misfits
Song: ghouls night out

Tabber: John Cukras
email: riffreaper@yahoo.com

Tuning: Normal

Riff 1:
E--------------------
B--------------------
G--------------------
D---------------77-22
A-777777-555555-55-22 x's 4
E-555555-333333----00 

Riff 2:
E---------------------------------------------------------
B---------------------------------------------------------
G---------------------------------------------------------
D-2222222-77777777------------------222222-5555555-4444444
A-2222222-55555555------------------222222-3333333-2222222
E-0000000----------- x's 2 then ----000000----------------

Riff 3:
E--------------------------------------
B--------------------------------------
G--------------------------------------
D-----------66666666-777777777-22222222
A-777777777-44444444-555555555-22222222
E-555555555--------------------00000000 x's 2

Riff 2

Riff 1 x's 8

We Are 138

Intro:

e:-------
b:-------
g:-------
D:-9~~~~~
A:-7~~~~~
E:-------



e:----------------------
b:----------------------
g:----------------------    repeat 2X
D:-9--9--9--9--9--9--5-7  
A:-7--7--7--7--7--7--3-5
E:----------------------

e:-------------------------
b:-------------------------
g:-------------------------
D:-5-5-5-5-5-5--7-7-7-7-7-7
A:-3-3-3-3-3-3--7-7-7-7-7-7
E:-------------------------
_______________________________________________


e:----------------
b:----------------
g:----------------
D:-9-9-9-9-9-9-5-7  repeat 4X          play faster
A:-7-7-7-7-7-7-3-5                       than begining
E:----------------


e:-------------------------
b:-------------------------
g:-------------------------
D:-5-5-5-5-5-5--7-7-7-7-7-7
A:-3-3-3-3-3-3--7-7-7-7-7-7
E:-------------------------

e:----------------
b:----------------
g:----------------  repeat 3X
D:-9-9-9-9-9-9-5-7  
A:-7-7-7-7-7-7-3-5
E:----------------

e:-------------------------
b:-------------------------
g:-------------------------
D:-5-5-5-5-5-5--7-7-7-7-7-7
A:-3-3-3-3-3-3--7-7-7-7-7-7
E:-------------------------

Verse:

e:----------------------------------------------
b:----------------------------------------------
g:----------------------------------------------
D:-9-9-9-9-9-9-9-9-9-9-9-9-9-9-9-9-9-9-9-9-9-9-9
A:-7-7-7-7-7-7-7-7-7-7-7-7-7-7-7-7-7-7-7-7-7-7-7
E:----------------------------------------------

do you think we are robot clean?
do you think tis face looks mean?



e:-------------------------
b:-------------------------
g:-------------------------
D:-5-5-5-5-5-5--7-7-7-7-7-7
A:-3-3-3-3-3-3--5-5-5-5-5-5
E:-------------------------

Its time to be an android not a man



e:----------------------------------------------
b:----------------------------------------------
g:----------------------------------------------
D:-9-9-9-9-9-9-9-9-9-9-9-9-9-9-9-9-9-9-9-9-9-9-9
A:-7-7-7-7-7-7-7-7-7-7-7-7-7-7-7-7-7-7-7-7-7-7-7
E:----------------------------------------------
 
the pleasantries are gone 
were stripped of all we were



e:-------------------------
b:-------------------------
g:-------------------------
D:-5-5-5-5-5-5--7-7-7-7-7-7
A:-3-3-3-3-3-3--7-7-7-7-7-7
E:-------------------------

In the eyes of Tiger

Solo:
e:-78-78-78-78-78-78-78-78-b8-b8-b8-b8-b8-b8-b8~~~
b:------------------------------------------------
g:------------------------------------------------
D:------------------------------------------------
A:------------------------------------------------
E:------------------------------------------------



chorus:

e:----------------
b:----------------
g:----------------
D:-9-9-9-9-9-9-5-7 X2 
A:-7-7-7-7-7-7-3-5                       
E:----------------

   we are 138

e:-------------------------
b:-------------------------
g:-------------------------
D:-5-5-5-5-5-5--7-7-7-7-7-7
A:-3-3-3-3-3-3--5-5-5-5-5-5
E:-------------------------

We are 133333338888888888

repeat ending 2X
Suggest correction
What's this?
You can suggest a correction to this tab. Community and Mods will review your correction and vote to approve or reject it.
comments
We did not receive enough feedback on this tab! Please rate:
print report bad tab
1 2 3 4 5
4 comments total. Showing first comments.
0 reply
SkaterD2002 1,918 wrote on June 13 2006, 11:47 am

such a rip off

0 reply
Misfitsfreak13 71 wrote on June 13 2006, 07:47 pm

The reason I did this was so it would be easier for people who wanted to learn multiple songs on the album could find it easier so wank off.

0 reply
HorrorFiend 220 wrote on June 11 2007, 09:58 am

then dont take credit for it

guest
You may want to rate the tab now too:
select rating
Please do not post tabs as comments. Select "correction" instead!