Oops, an error
Loading. Please wait.

Hybrid Moments Tab

version 1
version 1

Whole song

130,227 views 174 this week
12 commentsread comments
1 2 3 4 5
x 40
add to favorites
launch autoscroll
font size
0
reset
how to read this tab
guitar tuner
Autoscroll
slow
fast
+/-
esc
set tempo
stop
Help us to improve Ultimate-Guitar.com Take our survey!
×
Author
[Intro/Verse]

e|-----------------------------------------------------------------------|
B|-----------------------------------------------------------------------|
G|-----------------------------------------------------------------------|
D|-7-7-7-7-7-7-7-7------------------------------8-8-8-8--7-7-7-7-7-7-7-7-| x2
A|-5-5-5-5-5-5-5-5--9-9-9-9-9-9-9-9-9--5-5-5-5--6-6-6-6--5-5-5-5-5-5-5-5-|
E|------------------7-7-7-7-7-7-7-7-7--3-3-3-3---------------------------|


[Chorus]

e|----------------------------------------------------------------------|
B|----------------------------------------------------------------------|
G|----------------------------------------------------------------------|
D|------------------------------------7-7-7-7---------------------------|
A|-9-9-9-9--7-7-7-7-7-7-7-7--5-5-5-5--5-5-5-5--7-7-7-7--5-5-5-5-7-7-7-7-|
E|-7-7-7-7--5-5-5-5-5-5-5-5--3-3-3-3-----------5-5-5-5--3-3-3-3-5-5-5-5-|


[Verse]

e|-----------------------------------------------------------------------|
B|-----------------------------------------------------------------------|
G|-----------------------------------------------------------------------|
D|-7-7-7-7-7-7-7-7------------------------------8-8-8-8--7-7-7-7-7-7-7-7-| x2
A|-5-5-5-5-5-5-5-5--9-9-9-9-9-9-9-9-9--5-5-5-5--6-6-6-6--5-5-5-5-5-5-5-5-|
E|------------------7-7-7-7-7-7-7-7-7--3-3-3-3---------------------------|


[Chorus]

e|----------------------------------------------------------------------|
B|----------------------------------------------------------------------|
G|----------------------------------------------------------------------|
D|------------------------------------7-7-7-7---------------------------|
A|-9-9-9-9--7-7-7-7-7-7-7-7--5-5-5-5--5-5-5-5--7-7-7-7--5-5-5-5-7-7-7-7-|
E|-7-7-7-7--5-5-5-5-5-5-5-5--3-3-3-3-----------5-5-5-5--3-3-3-3-5-5-5-5-|


[Verse]

e|-----------------------------------------------------------------------|
B|-----------------------------------------------------------------------|
G|-----------------------------------------------------------------------|
D|-7-7-7-7-7-7-7-7------------------------------8-8-8-8--7-7-7-7-7-7-7-7-| x2
A|-5-5-5-5-5-5-5-5--9-9-9-9-9-9-9-9-9--5-5-5-5--6-6-6-6--5-5-5-5-5-5-5-5-|
E|------------------7-7-7-7-7-7-7-7-7--3-3-3-3---------------------------|


[Chorus]

e|----------------------------------------------------------------------|
B|----------------------------------------------------------------------|
G|----------------------------------------------------------------------|
D|------------------------------------7-7-7-7---------------------------|
A|-9-9-9-9--7-7-7-7-7-7-7-7--5-5-5-5--5-5-5-5--7-7-7-7--5-5-5-5-7-7-7-7-|
E|-7-7-7-7--5-5-5-5-5-5-5-5--3-3-3-3-----------5-5-5-5--3-3-3-3-5-5-5-5-|


[Outro]

e|--------------------------------------------------------|
B|--------------------------------------------------------|
G|--------------------------------------------------------|
D|-7-7-7-7-7-7-7-7-------------------------------------7--|
A|-5-5-5-5-5-5-5-5--9-9-9-9-9-9-9-9--5-5-5-5--7-7-7-7--5--|
E|------------------7-7-7-7-7-7-7-7--3-3-3-3--5-5-5-5-----
Suggest correction
comments
print report bad tab
12 comments total. Showing first comments. show 1 bad comment
-2 reply
whAtsAmAttAyou? 10 Apr 29, 2006 12:56 AM

AWESOME TAB! JUST LIKE HOW DOYLE PLAYS IT!

+2 reply
whAtsAmAttAyou? 10 May 01, 2006 01:26 AM

AWESOME!!!!!

guest
You may want to rate the tab now too:
select rating
Wanna post a correction for this tab? Suggest correction