Oops, an error
Loading. Please wait.
We have an official Hybrid Moments tab made by UG professional guitarists. Check out the tab »
×
by Misfits
7,307 views 42 this week
2 commentsread comments
1 2 3 4 5
x 14
add to favorites
×
Save as Personal and add changes to this tab that will be seen only by you. Learn more ›
×
You can save this tab as Personal to edit and correct it or add notes. All changes will be seen only by you. Learn more »
launch autoscroll
font size
0
reset
guitar tuner
backing track
0:00
0:00
edit
Autoscroll
slow
fast
+/-
esc
set tempo
stop
Author
Difficulty
-----------------------------------------------------------------------------
			     Hybrid Moments- The Misfits
-----------------------------------------------------------------------------

Tabbed By : Eduardo

Tuning:Standard

This Tab is 1,000,000% correct!!!
Dont Vote no just because you think its not the right way to play it
play along on bass with the song and see for yourself.

Like what Joey Methadone mentioned on one of the hybrid moments versions 
jerry only plays some notes on the octaves
and not just the reugular bass notes that would go there

What i didnt understand is that he got the octaves part right but 
the rest of the song (minus the octave notes) was wrong.


mainly his correct tab
with some revisions
of my own.

verse

G|------------------------------------------------------------------|
D|----------------9-9-9-9-9-9-9-9-5-5-5-5-5-5-5---------------------|
A|5-5-5-5-5-5-5-5--------------------------------6-6-6-6-6-6-6-6----|
E|------------------------------------------------------------------|

G|------------------------------------------------------------------|
D|------------------------------------------------------------------|
A|-5-5-5-5-5-5-5-5--------------------------------------------------|
E|------------------------------------------------------------------|

chorus
G|--------------------------------------------------------------------------|
D|-9-9-9-9-9-9-7-7-7-7-7-7-7-7-7-7-7-7-7-5-5-5-5-5-5-5-5-5------------------|
A|---------------------------------------------------------5-5-5-5-5-5-5-5-5|
E|--------------------------------------------------------------------------|

G|--------------------------------------------------------------------------|
D|-7-7-7-7-7-7-7-7-7-5-5-5-5-5-5-5-5-7-7-7-7-7-7-7-7------------------------|
A|--------------------------------------------------------------------------|
E|--------------------------------------------------------------------------|

Ending verse part
G|-------------------------------------------------------------------|
D|---------------9-9-9-9-9-9-9-9-9------5--5--5--5--5--5--7--7--7--7-|
A|-5-5-5-5-5-5-5-----------------------------------------------------|
E|-------------------------------------------------------------------|

G|-------------------------------------------------------------------|
D|-7--7--------------------------------------------------------------|
A|--------5~~~~~~----------------------------------------------------|
E|-------------------------------------------------------------------|

Verse 2x 
Chorus
Verse 2x
chorus
verse 2x
ending verse part
Suggest correction
Creating personal tab
Creating personal tab
You can edit any tab online and save it as your Personal.

You can edit, replace or remove any tab part or add personal notes – all changes will be seen only by you.

Personal tabs can be accessed anytime from any device, even offline.
Learn more »
comments
print report bad tab
2 comments total.
0 reply
Black Ox 160 Sep 29, 2014 03:05 PM

Nice work!

0 reply
arrell 207 Apr 04, 2015 02:26 AM

Good tab, but I wouldn't say it's "1,000,000%" right. That tab you cite probably has some of the rhythm more accurate than your own.

guest
You may want to rate the tab now too:
select rating
Wanna post a correction for this tab? Suggest correction