Oops, an error
Loading. Please wait.

Last Caress Tab

version 2
version 2

Whole song

Interactive

by Misfits
64,498 views 66 this week
4 commentsread comments
1 2 3 4 5
x 19
add to favorites
launch autoscroll
font size
0
reset
how to read this tab
guitar tuner
backing track
0:00
0:00
×
Best way to learn
"Last Caress"
Autoscroll
slow
fast
+/-
esc
set tempo
stop
Author
Verse 1 Fig.1
e|-|-------------------------------------------|
B|-|-------------------------------------7h8-7-|
G|-|---------10-12---------10-12-10---7--------|
D|-|-10------10-12-10------10-12-10---7--------|
A|-|-10------8--10-10------8--10-8----5--------|
E|-|-8-------------8---------------------------|


  Fig.2
e|-|---------------------------------------------|
B|-|---------------------------------------------|
G|-|---------------------------------------10-12-|
D|-|-10-10-10-10--10-10-10-10--10-10-10-10-10-12-|
A|-|-10-10-10-10--10-10-10-10--10-10-10-10-8--10-|
E|-|-8--8--8--8---8--8--8--8---8--8--8--8--------|(x2)


  Verse 2 Fig.3
e|-|---------------------------------------------|
B|-|---------------------------------------------|
G|-|---------------------------------------10-12-|
D|-|-10-10-10-10--10-10-10-10--10-10-10-10-10-12-|
A|-|-10-10-10-10--10-10-10-10--10-10-10-10-8--10-|
E|-|-8--8--8--8---8--8--8--8---8--8--8--8--------|(x2)

e|---------------------------------------------|
B|---------------------------------------------|
G|-10-10-10-10--10-10-10-10--7-7-7-7--7-7-7-7--|
D|-10-10-10-10--10-10-10-10--7-7-7-7--7-7-7-7--|
A|-8--8--8--8---8--8--8--8---5-5-5-5--5-5-5-5--|
E|---------------------------------------------|

e|----------------------------------------------------|
B|----------------------------------------------------|
G|----------------------------------------------------|
D|-10-10-10-10--10-10-10-10--10-10-10-10--10-10-10-10-|
A|-10-10-10-10--10-10-10-10--10-10-10-10--10-10-10-10-|
E|-8--8--8--8---8--8--8--8---8--8--8--8---8--8--8--8--|


  Chorus Fig.4
e|-|----------------------------------------------------|
B|-|----------------------------------------------------|
G|-|-10-10-10-10--10-10-10-10--12-12-12-12--12-12-12-12-|
D|-|-10-10-10-10--10-10-10-10--12-12-12-12--12-12-12-12-|
A|-|-8--8--8--8---8--8--8--8---10-10-10-10--10-10-10-10-|
E|-|----------------------------------------------------|

e|-----------------------------------------------------|
B|-----------------------------------------------------|
G|--------------9-9-9-9--------------------10-10-10-10-|
D|-10-10-10-10--9-9-9-9--7-7-7-7--7-7-7-7--10-10-10-10-|
A|-10-10-10-10--7-7-7-7--7-7-7-7--7-7-7-7--8--8--8--8--|
E|-8--8--8--8------------5-5-5-5--5-5-5-5--------------|

e|---------------------------------------|
B|---------------------------------------|
G|-10-10-10-10--12-12-12-12--12-12-12-12-|
D|-10-10-10-10--12-12-12-12--12-12-12-12-|
A|-8--8--8--8---10-10-10-10--10-10-10-10-|
E|---------------------------------------|


  Fig.5
e|-|----------------------------------------------------|
B|-|----------------------------------------------------|
G|-|---------------------------10-10-10-12--12-12-12-12-|
D|-|-10-10-10-10--10-10-10-10--10-10-10-12--12-12-12-12-|
A|-|-10-10-10-10--10-10-10-10--8--8--8--10--10-10-10-10-|
E|-|-8--8--8--8---8--8--8--8----------------------------|(x2)


That's ALL you need to know. It's easy enough to follow with the song.

************************************

| h  Hammer-on

************************************
Suggest correction
comments
print report bad tab
4 comments total. Showing first comments.
0 reply
Kryptt 40 Apr 30, 2010 02:45 AM

Great tap, for an awesome song!

+1 reply
DiscomfortSitty 10 Aug 12, 2011 06:02 PM

whats the song structure? like what orde are they in?

0 reply
ZOSO <(") 91 Oct 07, 2011 07:32 AM

ever notice thats the same pattern as the riff in blitzkrieg bop, just better love the misfits

guest
You may want to rate the tab now too:
select rating
Wanna post a correction for this tab? Suggest correction