Oops, an error
Loading. Please wait.
We have an official Last Caress tab made by UG professional guitarists. Check out the tab »
×
by Misfits
2,260 views 1 this week
no commentswrite comment
1 2 3 4 5
2 more votes to show rating
add to favorites
×
Save as Personal and add changes to this tab that will be seen only by you. Learn more ›
×
You can save this tab as Personal to edit and correct it or add notes. All changes will be seen only by you. Learn more »
launch autoscroll
font size
0
reset
how to read this tab
guitar tuner
backing track
0:00
0:00
edit
Autoscroll
slow
fast
+/-
esc
set tempo
stop
Difficulty
Last Caress by The Misfits

Listen to the song, it'll help you out.

Intro

e|-----------|
B|-----------|
G|-----7--9--|
D|--7--7--9--| (x2)
A|--7--5--7--|
E|--5--------|

e|-----------|
B|-----------|
G|--9-----7--|
D|--9-----7--|
A|--7-----5--|
E|-----------|

e|--------------|
B|--------------|
G|--------7--9--|
D|--7-----7--9--| (x2)
A|--7(x10)5--7--|
E|--5-----------|

Verse

e|--------------|
B|--------------|
G|--------7--9--|
D|--7-----7--9--| (x2)
A|--7(x10)5--7--|
E|--5-----------|

e|--------------------|
B|--------------------|
G|--9----7------------|
D|--9(x6)7(x6)7-------|
A|--7----5----7(x10)--|
E|------------5-------|

Chorus

e|---------------------------------------|
B|---------------------------------------|
G|--9----7---------7---------7----9------|
D|--9(x6)7(x6)5----7(x2)7----7(x6)9(x6)--|
A|--7----5----5(x2)5----7(x6)5----7------|
E|------------3---------5----------------|

e|-------------------|
B|-------------------|
G|-------7----9------|
D|--7----7(x2)9(x3)--| (x2)
A|--7(x6)5----7------|
E|--5----------------|

Last Chorus

e|-----------------------------------|
B|-----------------------------------|
G|--9----7---------7---------7----9--|
D|--9(x6)7(x6)5----7(x2)7----7(x6)9--|
A|--7----5----5(x2)5----7(x6)5----7--|
E|------------3---------5------------|

e|-------------------|
B|-------------------|
G|-------7----9------|
D|--7----7(x2)9(x3)--| (x8)
A|--7(x6)5----7------|
E|--5----------------|

End

e|-----|
B|-----|
G|-----|
D|--7--|
A|--7--|
E|--5--|

The Song is Built Up Something Like This:
Intro
Verse 
Chorus
Verse
Chorus
Verse
Last Chorus
End

--------------------------

This is my first tab. The chorus could a little off, but I think it sound pretty good.
Tabbed by: Alberto Luévano

            
            
Suggest correction
Creating personal tab
Creating personal tab
You can edit any tab online and save it as your Personal.

You can edit, replace or remove any tab part or add personal notes – all changes will be seen only by you.

Personal tabs can be accessed anytime from any device, even offline.
Learn more »
Give kudos to tab author, rate the tab!
1 2 3 4 5
comments
print report bad tab
guest
Wanna post a correction for this tab? Suggest correction