Oops, an error
Loading. Please wait.

Return Of The Fly bass

version 4
version 4

Whole song

Interactive

by Misfits
1,760 views 6 this week
3 commentsread comments
1 2 3 4 5
x 3
add to favorites
×
Save as Personal and add changes to this tab that will be seen only by you. Learn more ›
×
You can save this tab as Personal to edit and correct it or add notes. All changes will be seen only by you. Learn more »
launch autoscroll
font size
0
reset
guitar tuner
backing track
0:00
0:00
edit
Autoscroll
slow
fast
+/-
esc
set tempo
stop
Difficulty
Intro:

G|-------------------------------------------------|
D|--------3----------------------------------------|   x4
A|--1--4---------1--4------------------------------|
E|------------2------------------------------------|


Verse:

G|-------------------------------------------------|
D|-------------------------------------------------|   x4
A|--1-11-1-----------------------------------------|
E|----------2-22-2---------------------------------|


Chorus:

G|-------------------------------------------------|
D|-------------------------------------------------|   x3
A|--7-77-7---5-55-5--------------------------------|
E|-------------------------------------------------|

Chorus Part 2:

G|-------------------------------------------------|
D|-------------------------------------------------|
A|--7-77-7-------5-4-3-2---------------------------|
E|-------------------------------------------------|

Verse:

G|-------------------------------------------------|
D|-------------------------------------------------|   x4
A|--1-11-1-----------------------------------------|
E|----------2-22-2---------------------------------|


Chorus:

G|-------------------------------------------------|
D|-------------------------------------------------|   x9
A|--7-77-7---5-55-5--------------------------------|
E|-------------------------------------------------|


Chorus Part 2:

G|-------------------------------------------------|
D|-------------------------------------------------|
A|--7-77-7-------5-4-3-2---------------------------|
E|-------------------------------------------------|

Verse:

G|-------------------------------------------------|
D|-------------------------------------------------|   x14
A|--1-11-1-----------------------------------------|
E|----------2-22-2---------------------------------|

Outro:

G|-------------------------------------------------|
D|--------3----------------------------------------|   x4
A|--1--4---------1--4------------------------------|
E|------------2------------------------------------|

Pretty sure it's right on so play it
PLZ RATE!

            
            
Suggest correction
Creating personal tab
Creating personal tab
You can edit any tab online and save it as your Personal.

You can edit, replace or remove any tab part or add personal notes – all changes will be seen only by you.

Personal tabs can be accessed anytime from any device, even offline.
Learn more »
Give kudos to tab author, rate the tab!
1 2 3 4 5
comments
print report bad tab
3 comments total.
0 reply
arrell 207 Jun 30, 2010 10:30 PM

You're missing a fill after the verse.

0 reply
JShrimp 77 Oct 04, 2013 10:53 AM

i believe the 1st note is an A not a B

0 reply
grindcorp138 59 Apr 07, 2015 04:10 PM

The fill is 2-1-3-4. This leads into the chorus and play every fourth measure of the verse.

guest
Wanna post a correction for this tab? Suggest correction