Oops, an error
Loading. Please wait.

Scarecrow Man Bass Tab

version 2
version 2

Whole song

Interactive

4 views 1 this week
no commentswrite comment
1 2 3 4 5
3 more votes to show rating
add to favorites
launch autoscroll
font size
0
reset
guitar tuner
Autoscroll
slow
fast
+/-
esc
set tempo
stop
Help us to improve Ultimate-Guitar.com Take our survey!
×
Author
Difficulty
Tuning
novice
D# G# C# F# A# D#
Misfits - Scarecrow Man
Famous Monsters (1999)

[Intro Pt I]

F#|----------------------------|--------------------|
C#|----------------------------|--------------------|
G#|----------------------------|--------------------|
D#|-0--6p0-6p0--0---6p0-6p0--0-|-T-6p0-6p0--0-------|

[Intro Pt II]

F#|--------------------------|------------------------------|
C#|--------------------------|------------------------------|
G#|--------------------------|------------------------------|
D#|-0--0-3--0--3--0--3-0---3-|-T--0---3-3-0-0-3--6--6--6-0--|


[Verse]

F#|-------------------------------|------------------------------|
C#|-------------------------------|------------------------------|
G#|-------------------------------|------------------------------|
D#|-0--0-3-3-0-0-3-3-0-0-3-0--0-3-|-3-0-0-3-3-0-0-3-3-6--6--6-0--|

[Chorus]

F#|---------------------------|-------|
C#|---------------------------|-------|
G#|-5---5--5-5-5-3---3--3-3-3-|-2-----|
D#|---------------------------|-------|

[Break]

F#|--------------------------|-----------------------------|
C#|--------------------------|-----------------------------|
G#|--------------------------|-----------------------------|
D#|-0--0-3--0--3--0--3-0---3-|-T--0--3-3-0-0-3--7--5--3--2-|

[Pre Solo]

F#|-----------|
C#|-----------|
G#|-----------|
D#|-2----3----|

[Solo]

F#|---------------------------|---------------------------|
C#|---------------------------|---------------------------|
G#|---------------------------|---------------------------|
D#|-0--0-3--0--3--0--3-0--0-3-|-T-0--3--0--3--0--3-0--0-3-|

[Outro]

F#|----------------------------|------------------------|
C#|----------------------------|------------------------|
G#|----------------------------|------------------------|
D#|-0--6p0-6p0--0---6p0-6p0--0-|-T-6p0-6p0--7---5--3--2-|

[End]

F#|------|
C#|------|
G#|------|
D#|-0----|

Order:
Intro Pt I x2
Intro Pt II x2
Verse x4
Chorus x2
Break x2
Verse x4
Chorus x2
Break x4
Pre Solo
Solo
Chorus x2
Break x2
Verse x4
Chorus x2
Break x4
Outro x4
End

************************************

| T   Tie note
| p   Pull-off

************************************
Suggest correction
Give kudos to tab author, rate the tab!
1 2 3 4 5
comments
print report bad tab
guest
You may want to rate the tab now too:
select rating
Wanna post a correction for this tab? Suggest correction