Oops, an error
Loading. Please wait.

She Bass

version 1
version 1

Whole song

Interactive

by Misfits
4,238 views 1 this week
no commentswrite comment
1 2 3 4 5
x 10
add to favorites
launch autoscroll
font size
0
reset
guitar tuner
×
Best way to learn
"She"
Autoscroll
slow
fast
+/-
esc
set tempo
stop
Author
Misfits-She 


Intro/Verse x6
G|-------------------------------|
D|-------------------------------|
A|-----------5-------------------| 
E|-5-55555555-5-3-33333-5-555555-|

Chorus x2
G|----------------------------|
D|---75-----53-----32---------|
A|-----75-----53-----32---357-| 
E|-5------3------1------3-----|

Post Chorus
G|------------------------------------|
D|-----------------77777777-75--------|
A|----------------------------753-----|
E|-55555555-555555----------------535-|

Verse x4

Outro
G|--------------------------------------------------------|
D|----------------------------------------------777775--7-|
A|----------------------------------------------------7-0-|
E|-33333333-55555555-33333333-55555555-55555555-----------|

Thank you.  PLEASE RATE!
Suggest correction
comments
print report bad tab
guest
You may want to rate the tab now too:
select rating
Wanna post a correction for this tab? Suggest correction