Oops, an error
Loading. Please wait.
We have an official Skulls tab made by UG professional guitarists. Check out the tab »
×
by Misfits
2,739 views 1 this week
2 commentsread comments
1 2 3 4 5
1 last vote to show rating
add to favorites
×
Save as Personal and add changes to this tab that will be seen only by you. Learn more ›
×
You can save this tab as Personal to edit and correct it or add notes. All changes will be seen only by you. Learn more »
launch autoscroll
font size
0
reset
guitar tuner
backing track
0:00
0:00
edit
Autoscroll
slow
fast
+/-
esc
set tempo
stop
Author
Difficulty
Band: The Misfits
Song: Skulls
Me: Jon Petersen

***********************************************************************

Verse

|--------------|--------------|------------------|--------------| (X4)
|--------------|--------------|------------------|--------------| 
|--------------|--7--7--7--7--|--9---9---9---9---|--5--5--5--5--|
|--5--5--5--5--|--------------|------------------|--------------|

Chorus

|--------------------------|--------------------------|  (X4)
|--------------------------|--------------------------|
|--------------------------|--5--5--5--5--5--5--5--5--|
|--2--2--2--2--2--2--2--2--|--------------------------|

Exit Chorus

|--------|----------|
|--------|----------|
|--7--7--|--9---9---|
|--------|----------|

Verse

|--------------|--------------|------------------|--------------| (X2)
|--------------|--------------|------------------|--------------| 
|--------------|--7--7--7--7--|--9---9---9---9---|--5--5--5--5--|
|--5--5--5--5--|--------------|------------------|--------------|

Chorus

|--------------------------|--------------------------|  (X4)
|--------------------------|--------------------------|
|--------------------------|--5--5--5--5--5--5--5--5--|
|--2--2--2--2--2--2--2--2--|--------------------------|

Exit Chorus

|--------|----------|
|--------|----------|
|--7--7--|--9---9---|
|--------|----------|

Verse

|------------------|-----|-----|  (X8)
|------------------|-----|-----|
|--9---9---9---9---|--7--|--5--|
|------------------|-----|-----|

Exit Verse

|------------------|  (X4)
|------------------|
|------------------|
|--9---9---9---9---|

Chorus

|--------------------------|--------------------------|  (X2)
|--------------------------|--------------------------|
|--------------------------|--5--5--5--5--5--5--5--5--|
|--2--2--2--2--2--2--2--2--|--------------------------|


|--------|-----------|  
|--------|-----------|  
|--7--7--|--9---9----|
|--------|-----------|


|--------------------------|--------------------------|  (X2)
|--------------------------|--------------------------|
|--------------------------|--5--5--5--5--5--5--5--5--|
|--2--2--2--2--2--2--2--2--|--------------------------|


|--------|-----------|  
|--------|-----------|  
|--7--7--|--9---9----|
|--------|-----------|


|--------------------------|--------------------------|  (X2)
|--------------------------|--------------------------|
|--------------------------|--5--5--5--5--5--5--5--5--|
|--2--2--2--2--2--2--2--2--|--------------------------|


|--------|-----------|  
|--------|-----------|  
|--7--7--|--9---9----|
|--------|-----------|

Exit Verse

|------------------|  (X2)  |------|
|------------------|        |------|
|------------------|        |------|
|--9---9---9---9---|        |--9---|

END

            
            
Suggest correction
Creating personal tab
Creating personal tab
You can edit any tab online and save it as your Personal.

You can edit, replace or remove any tab part or add personal notes – all changes will be seen only by you.

Personal tabs can be accessed anytime from any device, even offline.
Learn more »
Give kudos to tab author, rate the tab!
1 2 3 4 5
comments
print report bad tab
2 comments total.
0 reply
chasbcm 31 Oct 22, 2007 01:48 PM

perfect!!! 5 stars

0 reply
frenchabortion 17,254 Dec 03, 2007 01:58 AM

no not perfect

guest
You may want to rate the tab now too:
select rating
Wanna post a correction for this tab? Suggest correction