Oops, an error
Loading. Please wait.

Some Kinda Hate Tab

version 1
version 1

Solo

Whole song

Interactive

2,333 views 1 this week
2 commentsread comments
1 2 3 4 5
2 more votes to show rating
add to favorites
launch autoscroll
font size
0
reset
how to read this tab
guitar tuner
×
Best way to learn
"Some Kinda Hate"
Autoscroll
slow
fast
+/-
esc
set tempo
stop
This is the SOLO!
E|---------------------------------|---------------------------------|
B|---------------------------------|---------------------------------|
G|---14----12--9---9---7-5-7-5--2--|---------------------------------|
D|---------------------------------|---------------------------------|
A|---------------------------------|---------------------------------|
E+---------------------------------|---------------------------------+

Then after that you will go back to this:
E|---------------------------------|---------------------------------|
B|---------------------------------|---------------------------------|
G|-5-----5-5-----5-5-----5-5---4---|-2-----2-2-----2-2-----2-2---4---|
D|-5-----5-5-----5-5-----5-5---4---|-2-----2-2-----2-2-----2-2---4---|
A|-3-----3-3-----3-3-----3-3---2---|-0-----0-0-----0-0-----0-0---2---|
E+---------------------------------|---------------------------------+

or on vesion 2 you will go back to this:
E|--------------------------------------------------------|
B|--------------------------------------------------------|
G|--------------------------------------------------------|
D|--------------------------------------------------------|
A|---10---10-10---10-10---10-10---9---7--77--77---77--9---|
E|----8----8--8----8--8----8--8---7---5--55--55---55--7---+

and do that a few times.
Suggest correction
Give kudos to tab author, rate the tab!
1 2 3 4 5
comments
print report bad tab
2 comments total.
0 reply
Emtoo 10 Apr 02, 2006 04:37 AM

actually the solo is :

E|------------------------------------------------------------------
B|------------------------------------------------------------------
G|---14-14-14--12--9---9---7-5-7-5--2-------------------------------
D|------------------------------------------------------------------
A|------------------------------------------------------------------
E+---------------------------------|---------------------------------

0 reply
Emtoo 10 Apr 02, 2006 04:38 AM

sorry, I mean :

E|------------------------------------------------------------------
B|------------------------------------------------------------------
G|---14-14-14--12--9-9--9--9-9---7-5-7-5--2-------------------------
D|------------------------------------------------------------------
A|------------------------------------------------------------------
E+------------------------------------------------------------------

guest
You may want to rate the tab now too:
select rating
Wanna post a correction for this tab? Suggest correction