Oops, an error
Loading. Please wait.

Static Age Bass Tab

version 1
version 1

Album

Whole song

Interactive

3,783 views 6 this week
4 commentsread comments
1 2 3 4 5
x 3
add to favorites
launch autoscroll
font size
0
reset
guitar tuner
Autoscroll
slow
fast
+/-
esc
set tempo
stop
Help us to improve Ultimate-Guitar.com Take our survey!
×
Difficulty
Tuning
novice
E A D G B E
TRACK-1 STATIC AGE
Intro/refrain

G|-------------------------------------------I-----------------------------|
D|-------------------------------------------I-----------------------------|
A|-------------------------------------------I-x2---------------x2 0r 3----|
E|-0000000000000000---33333333-55555555------I-------7777-3333-------------|

Verse
G|-------------------------------------------------------------------------|
D|-------------------------------------------------------------------------|
A|-------------------------------------------------------------------------|
E|0000000000000000000000000000000000000000000000000000000000000000000000000-

TRACK-2 TV CASUALTY
Main Riff
-----------------------------|
-----------------------------|
-----7-6----7-6---7-6----7-6-|
-4-4-----4-4---4-4----4-4----|

-----------------------------|
-----------------------------|
-----7-6----7-6---7-6----7-6-|
-4-4-----4-4---4-4----4-4----|

Chorus
-----------------------------------------------------------------|
-----------------------------------------------------------------|
-----------------------------------------------------------------|
-7-7-7-7-6-6-6-6-7-7-7-7-6-6-6-6-4-4-4-4-4-4-4-4-4-4-4-4-4-4-4-4-|

-----------------------------------------------------------------|
-----------------------------------------------------------------|
-----------------------------------------------------------------|
-7-7-7-7-6-6-6-6-7-7-7-7-6-6-6-6-4-4-4-4-4-4-4-4-4-4-4-4-4-4-4-4-|

TRACK-3 SOME KINDA HATE
Verse
G|----------------------------------------|
D|----------------------------------------|
A|-3--3-3--3-3--3-3-2-0--0-0--0-0--0-0-2--|
E|----------------------------------------|

Chorus x3
G|-------------------|
D|-3333333355555555--|
A|-------------------|
E|-------------------|

On the 4th time
G|-----------|
D|-3~----5~--|
A|-----------|
E|-----------|

Bridge
G|-------------------|
D|-------------------|
A|---------44444444--|
E|-44444444----------|

Ending
G|-----------------|
D|-3~----5~--------|
A|-------------3~--|
E|-----------------|

TRACK-4 LAST CARESS
INTRO
G--------------------|
D--------------------|
A---3-5----3-5--3----|
E-3------3---------5-|1X

PLAY 2X
G-----------------|
D-----------------|
A--------------3-5|
E-3-3-3-3-3-3-----|

PLAY 3X
G--------------------------------------------------------------------------|
D--------------------------------------------------------------------------|
A--------3-3-3-3-3-5-5-5-5-5----------2-2-2-2-2-7-7-7-7-7-3-3-3-3-3-5-5-5-5|
E-3-3-3-3-------------------3-3-3-3-3--------------------------------------|

G-----------------------------|
D-----------------------------|
A-----------3-5-----------3-5-|
E-3-3-3-3-3-----3-3-3-3-3-----|


TRACK-5 RETURN OF THE FLY
INTRO           Main Riff
G-----------------|-----------------|
D-------3---------|-------3---------|
A—1---4-----3---4-|-1---4-----1---4-|
E---------2-------|---------2-------|

TRACK-6 HYBRID MOMENTS
Main riff:
G|-----------------------------------------|
D|-----------------------------------------|
A|55555555---------------6666-55555555-----|
E|---------77777777-3333-------------------|


	"...ouh baby when you cry..."
G|-----------------------------------------|
D|-----------------------------------------|
A|-------------------5555------------------|
E|7777-55555555-3333------5555-3333-5555---|


	Last riff:
G|-----------------------------------------|
D|-----------------------------------------|
A|55555555--------------------5------------|
E|---------77777777-3333-5555--------------|

TRACK-7 WE ARE 138
Intro
G|--------------------------------------------------|
D|--------------------------------------------------|
A|7-7-7-7-7-7------7-7-7-7-7-7----------------------|
E|------------3--5-------------3--5-3-3-3-3-5-5-5-5-|

Riff 1   (12)
G|-------------------|
D|-------------------|
A|777777777777-------|
E|-------------3--5--|

Riff 2
G|------------------|
D|------------------|
A|------------------|
E|33333333-55555555-|

Riff 3       (48)
G|------------------------------------------------------------------|
D|------------------------------------------------------------------|
A|777777777777777777777777777777777777777777777777------------------|
E|-------------------------------------------------33333333-55555555|

Riff 4    (48)
G|-------------------------------------------------|
D|-------------------------------------------------|
A|777777777777777777777777777777777777777777777777-|
E|-------------------------------------------------|

Riff 5
G|----------------------------------------------------------|
D|----------------------------------------------------------|
A|7-7-7-7-3-3-3-3-5-5-5-5-7-7-7-7-7-7-7-7-3-3-3-3-5-5-5-5-7~|
E|----------------------------------------------------------|

TRACK-8 TEENAGERS FROM MARS
Riff 1
G-------------------------------------------------------|
D-------------------------------------------------------|
A-------------------------------------------------------|
E--3-3-3-3-3-4-4-4-4-5-5-5------------------------------|

Riff 2
G---------------------------------------------------------|
D---------------------------------------------------------|
A5-5-5-5- 0-0-0-0-0-0-0-0---------------------------------|
E---------------------------------------------------------|

Riff 3
G--------------------------------------------------------|
D--------------------------------------------------------|
A---0-0-0-0-7-7-7-7-7-7-7-7------------------------------|
E--------------------------------------------------------|


Riff 4
G---------------------------------------------|
D---------------------------------------------|
A--8-8-8-8-0-0-0-0-0-0-0-0--------------------|
E---------------------------------------------|

RIFF 5
G-------------------------------------------|
D-------------------------------------------|
A--0-0-0-0-2-2-2-2-2-2-2-2------------------|
E-------------------------------------------|

TRACK-9 COME BACK
Verse
G---------|
D---------|
A---------| X22
E00000000-|

Bridge
G---------|
D222220---|
A------20-|
E---------|

Chorus
G-------------|
D—---11-44-11-|
A-22----------| X2
E-------------|

G------------|----------------------------| PLAYED UNDER THE “COME BACK” PART
D------------|----------------------------|
A-----3-5--|--------2-2-------------------|
E---3--5------------| ------0--0----------|

TRACK-10 ANGELFUCK
Intro
G--------------------------------|
D--------------------------------|
A0-00-00-0-00-00-0-00-00-00000000| x1
E--------------------------------|

Verse
G---------------------------|
D------------0-00-00-0-00-00|
A0-00-00-0-00---------------| x2
E---------------------------|

Chorus
G-----------------------------------------------------------|
D44444444444444-22222222222222-00000000000000-22222222222222|
A-----------------------------------------------------------| x2
E-----------------------------------------------------------|

Verse 2
G---------------|
D---------------|
A00000000000-55-| x4
E---------------|

Ending
G----------------|
D----------------|
A00000000000-550~| x1
E------------------------|

TRACK-11  HOLLYWOOD BABYLON
Main Riff
|---------|
|---------|
|---------|
|-0-0-3-0-|

Interlude
|----------------------------------------------------------|
|----------------------------------------------------------|
|-0--0-0-0-0-1-1-1-1-0-0-0-0-------------------------------|
|----------------------------0-0-3-0-----------------------|

Chorus
|-----------------------------------------------------------------|
|-----------------------------------------------------------------|
|-----------------------------------------------------------------|
|-0-0-3-0-0-0-3-0-0-0-3-0-0-0-3-0-6-6-6-6-6-6-6-6-3-3-3-3-3-3-3-3-|

Bridge
|----------------------------------------------------------|
|----------------------------------------------------------|
|-------------------------1-1------------------------------|
|-0-0-3-0-0-0-3-0-0-0-3-0----------------------------------|

TRACK-12 ATTITUDE

Intro
:---------------------------------------|
:---------------------------------------|
:-555555555555555555555555555555555-----|
:---------------------------------------|

Part 1
:------------------------------------|
:------------------------------------|
:-55555555--------55555555-----------|
:---------33333333--------33333333---|

Part 2
:--------------------------------------------------------------------|
:--------------------------------------------------------------------|
:--------------------------------------------------------------------|
:-2222222222222222333333333333333322222222222222223333333355555555---|

TRACK-13 BULLET

Part 1
:--------------------------------|
:-------------------33-----------|
:-555555555555555533--5 5 5555---|
:--------------------------------|

Part 2
:---------------------------------------------------------|
:---------------------------------------------------------|
:5555555555555555333333333333333111133335555555555555555--
:---------------------------------------------------------

Part 3
:------------------------------------|
:-55555555--------55555555-----------|
:---------55555555--------55555555---|
:------------------------------------|

TRACK-14 THEME FOR A JACKAL

G---------------|
D----------5-3--|
A—33-55-66------|
E---------------|

TRACK-15 SHE
verse
G-----------------------------|
D-----------------------------|
A-----------5-----------------|
E55555555555-5-33333335555555-|

Chorus
G---------------------------|
D---------------------------|
A---------------------------|
E—55-33-5533----------------|

TRACK-16
intro:
G|--------------------------------------------------------|
D|-----------------555555555555555555555555---------------|
A|-8------------------------------------------------------|
E|--------------------------------------------------------|

verse:
G|--------------------------------------------------------|
D|-5555555555555555555555555------------------------------|
A|---------------------------5555555555555555555555555----|
E|--------------------------------------------------------|

chorus:
G|-----------------------------------------------------------|
D|-8-88-5-55----5-555----------------------------------------|
A|-----------88----------------------------------------------|
E|-----------------------------------------------------------|

TRACK-17 IN THE DOORWAY
Riff 1 - 3 times
G|-------------------------------------------------------|
D|-------------------------------------------------------|
A|----------------------5--7--8888888--777777--88888888--|
E|-55555--33333--55555-----------------------------------|

Riff 2 - 4 times
G|-----------|
D|-----------|
A|--------5--|
E|-5--55-----|

Play riff 1 2 more times

Riff 3
G|--------------------------|
D|--------------------------|
A|-------5--7--8--88--7--5--|
E|-5--55--------------------|

End
G|-------|
D|-------|
A|-------|
E|-5-----|

This is i think the misfits best albums its back when they didnt dress all ghoulish yet 
it still kicked ass.
this was all done by Joshua R. Just so you all know.
Suggest correction
Give kudos to tab author, rate the tab!
1 2 3 4 5
comments
print report bad tab
4 comments total. Showing first comments.
0 reply
BucketheadRules 279 Jul 18, 2007 10:34 PM

Hey hey buddy... good stuff mostly but how about a little credit to the people that made the tabs? Like my Some Kinda Hate tab? That'd be great.

0 reply
Gillbo 10 Jul 22, 2007 06:40 PM

angel**** and we are 138 have some wrong bits but other than that it is ok

0 reply
arrell 199 Jul 02, 2010 06:17 AM

Return of the Fly has more than one riff.

guest
You may want to rate the tab now too:
select rating
Wanna post a correction for this tab? Suggest correction