Oops, an error
Loading. Please wait.

Teenagers From Mars bass

version 3
version 3

Whole song

Interactive

by Misfits
2,947 views 9 this week
1 commentread comment
1 2 3 4 5
x 6
add to favorites
×
Save as Personal and add changes to this tab that will be seen only by you. Learn more ›
×
You can save this tab as Personal to edit and correct it or add notes. All changes will be seen only by you. Learn more »
launch autoscroll
font size
0
reset
guitar tuner
backing track
0:00
0:00
edit
Autoscroll
slow
fast
+/-
esc
set tempo
stop
Author
Difficulty
Misfits - "Teenagers From Mars"
from 'Static Age'
Tabbed by arrell

The other tabs for this are quite poor, failing to note Jerry Only's fills. I sincerely hope
you can make some sense of the structure and rhythm guides below. Any comments are welcome.

Intro
   G      G#    F      G      G#    F
   E E SSSE SSSSSSS    E E SSSE SSSSSSS
G-------------------|-------------------|
D-------------------|-------------------|
A-------------------|-------------------|
E--3-3-3334-4444111-|--3-3-3334-4444111-|

Verse 1
   G      G#    F      G      G#    F      G      G#    F      G      G#
   E E SSSE SSSSSSS    E E SSSE SSSSSSS    E E SSSE SSSSSSS    E E SSSE SSSSSSS
G-------------------|-------------------|-------------------|-------------------|
D-------------------|-------------------|-------------------|-------------------|
A-------------------|-------------------|-------------------|-------------------|
E--3-3-3334-4444111-|--3-3-3334-4444111-|--3-3-3334-4444111-|--3-3-3334-4444444-|

Pre-Chorus 1 "We are the angel mutants..."
   C#      G#          C#      G#          C#      G#          C#      G#
   SSSSSSSE SSSSSSS    SSSSSSSE SSSSSSS    SSSSSSSE SSSSSSS    SSSSSSSE SSSSSSS
G-------------------|-------------------|-------------------|-------------------|
D--------/6-6666666-|---------/6-666666-|---------/6-666666-|---------/6-66643--|  *Note fill.
A--4444444----------|--4444444----------|--4444444----------|--4444444--------6-|
E-------------------|-------------------|-------------------|-------------------|

Chorus 1 "Teenagers from Mars..."
   B      E            B      E            B      E            A#     E
   SSSSSSSE SSSSSSS    SSSSSSSE SSSSSSS    SSSSSSSE SSSSSSS    SSSSSSSE SSSSSSS
G-------------------|-------------------|-------------------|-------------------|
D---------2-2222222-|---------2-2222222-|---------2-2222222-|---------2-2222222-|
A--2222222----------|--2222222----------|--2222222----------|--1111111----------|
E-------------------|-------------------|-------------------|-------------------|

   A#     E     F
   E E SSSE SSSSSSS
G-------------------|
D---------2-2222----| Same rhythm as intro
A--1-1-111----------|
E---------------111-|

Repeat above again, however note a new fill in pre-chorus, and a different ending of 
2.

Pre-Chorus 2 "We take your weak resistance..."
   C#      G#          C#      G#          C#      G#          C#      G#
   SSSSSSSE SSSSSSS    SSSSSSSE SSSSSSS    SSSSSSSE SSSSSSS    SSSSSSSE SSSSSSS
G-------------------|-------------------|-------------------|-------------------|
D--------/6-6666666-|---------/6-666464-|---------/6-666666-|---------/6-66643--|
A--4444444----------|--4444444----------|--4444444----------|--4444444--------6-|
E-------------------|-------------------|-------------------|-------------------|

Chorus 2 "Teenagers from Mars..."
   B      E            B      E            B      E            A#     E
   SSSSSSSE SSSSSSS    SSSSSSSE SSSSSSS    SSSSSSSE SSSSSSS    SSSSSSSE SSSSSSS
G-------------------|-------------------|-------------------|-------------------|
D---------2-2222222-|---------2-2222222-|---------2-2222222-|---------2-2222222-|
A--2222222----------|--2222222----------|--2222222----------|--1111111----------|
E-------------------|-------------------|-------------------|-------------------|

   A#     E     F
   SSSSSSSE SSSSSSS
G-------------------|
D---------2-2222----|
A--1111111----------|
E---------------111-|

Repeat the whole first section above again.

Final chorus extended
   B      E            B      E            B      E
   SSSSSSSE SSSSSSS    SSSSSSSE SSSSSSS    SSSSSSSE SSSSSSS
G-------------------|-------------------|-------------------|
D---------2-2222222-|---------2-2222222-|---------2-2222222-|
A--2222222----------|--2222222----------|--2222222----------|
E-------------------|-------------------|-------------------|

Bridge "We don't care..."
   A      B
   SSSSSSSE SSSSSSS
G-------------------|
D-------------------| x8
A--00000002-2222222-|
E-------------------|

Conclusion
   A      B
   Q.     E H
G-------------------|
D-------------------|
A--0------0-2-------|
E-------------------|

            
            
Suggest correction
Creating personal tab
Creating personal tab
You can edit any tab online and save it as your Personal.

You can edit, replace or remove any tab part or add personal notes – all changes will be seen only by you.

Personal tabs can be accessed anytime from any device, even offline.
Learn more »
comments
print report bad tab
1 comment total.
0 reply
Mechayoshi 249 Dec 22, 2015 09:21 AM

Thank you for having the only tab that's good for this.

guest
You may want to rate the tab now too:
select rating
Wanna post a correction for this tab? Suggest correction